» » »

One Way System, Your Ready Now Tabs (ver.1)

Artists:  A B C D E F G H I J K L M N O P Q R S T U V W X Y Z # 

Your Ready Now Tabs (ver.1)

One Way System Tabs
 Rating:
4/5 (4 votes)
Your Ready Now lessons Tabs too difficult? Try these video lessons and learn fast
1
                Verse                          x12
E---------------------------------|
B---------------------------------|
G-9---------------2---------------|
D-9---------------2---------------|
A-7---------------0---------------|
E---------------------------------|

Verse Continued                x12
E---------------------------------|
B---------------------------------|
G-9-9-9-9-9-9-9-9-2-2-2-2-2-2-2-2-|
D-9-9-9-9-9-9-9-9-2-2-2-2-2-2-2-2-|
A-7-7-7-7-7-7-7-7-0-0-0-0-0-0-0-0-|
E---------------------------------|
    **PM*********  **pm**********

Interlude  x4
E------------|
B------------|
G-9-9--7-----|
D-9-9--7-7-7-|
A-7-7--5-7-7-|
E--------5-5-|

Verse                           x8
E---------------------------------|
B---------------------------------|
G-9---------------2---------------|
D-9---------------2---------------|
A-7---------------0---------------|
E---------------------------------|

Interlude  x4
E------------|
B------------|
G-9-9--7-----|
D-9-9--7-7-7-|
A-7-7--5-7-7-|
E--------5-5-|

Verse                           x8
E---------------------------------|
B---------------------------------|
G-9---------------2---------------|
D-9---------------2---------------|
A-7---------------0---------------|
E---------------------------------|

Interlude  x4
E------------|
B------------|
G-9-9--7-----|
D-9-9--7-7-7-|
A-7-7--5-7-7-|
E--------5-5-|

**the thing about the verses is that there is two guitars, one palmutes the other holds the note**
            
Submit corrections

comments powered by Disqus
↑ Back to top | One Way System Tabs for Your Ready Now. Lyrics for acoustic guitar and electric guitar. 1 Tablatures and chords are parodies/interpretations of the original songs. You may use it for private study, scholarship, research or language learning purposes only