» » »

This Is The Age Bass tabs (ver.1)

Artists:  A B C D E F G H I J K L M N O P Q R S T U V W X Y Z # 

This Is The Age Bass tabs (ver.1)

One Way System
Rating:
0/5 (0 votes)

Hard to play? Try these video lessons and learn fast.
                Intro
G---------------------------------|-------------------|
D---------------------------------|-------------------|
A---------------------------------|-7--------5--------|
E---------------------------------|-------------------|

Verse                           x7
G---------------------------------|
D-------------6-7---------0-0---0-|
A-7-7-7-7-7-7-----0-0-0-0-----2---|
E---------------------------------|

Chorus
G---------------------------------|---------------------------------|
D-------------4-5-----------------|-------------4-5-----------------|
A-5-5-5-5-5-5-----3-3-3-3-3-3-3-3-|-5-5-5-5-5-5-----3-3-3-3-3-3-3-3-|
E---------------------------------|---------------------------------|

Verse                           x8
G---------------------------------|
D-------------6-7---------0-0---0-|
A-7-7-7-7-7-7-----0-0-0-0-----2---|
E---------------------------------|

Chorus
G---------------------------------|---------------------------------|
D-------------4-5-----------------|-------------4-5-----------------|
A-5-5-5-5-5-5-----3-3-3-3-3-3-3-3-|-5-5-5-5-5-5-----3-3-3-3-3-3-3-3-|
E---------------------------------|---------------------------------|

Bridge
G-------------------|-------------------|
D-------------------|-------------------|
A-7--------5--------|-7--------5--------|
E-------------------|-------------------|
                                x4
G---------------------------------|
D-------------6-7---------0-0---0-|
A-7-7-7-7-7-7-----0-0-0-0-----2---|
E---------------------------------|

Chorus
G---------------------------------|---------------------------------|
D-------------4-5-----------------|-------------4-5-----------------|
A-5-5-5-5-5-5-----3-3-3-3-3-3-3-3-|-5-5-5-5-5-5-----3-3-3-3-3-3-3-3-|
E---------------------------------|---------------------------------|

G---------------------------------|---------------------------------|
D-------------4-5-----------------|-------------4-5-----------------|
A-5-5-5-5-5-5-----3-3-3-3-3-3-3-3-|-5-5-5-5-5-5-----3-3-3-3-3-3-3-3-|
E---------------------------------|---------------------------------|

Bridge 2                             x2
G--------------------------------------|
D--------------------------------------|
A-7--------5---------7--------5--------|
E--------------------------------------|

Chorus
G---------------------------------|---------------------------------|
D-------------4-5-----------------|-------------4-5-----------------|
A-5-5-5-5-5-5-----3-3-3-3-3-3-3-3-|-5-5-5-5-5-5-----3-3-3-3-3-3-3-3-|
E---------------------------------|---------------------------------|

G---------------------------------|---------------------------------|
D-------------4-5-----------------|-------------4-5-----------------|
A-5-5-5-5-5-5-----3-3-3-3-3-3-3-3-|-5-5-5-5-5-5-----3-3-3-3-3-3-3-3-|
E---------------------------------|---------------------------------|
            
Hard to play? Try these video lessons and learn fast. | Correct




comments powered by Disqus
↑ Back to top | Tablatures and chords are parodies/interpretations of the original songs. You may use it for private study, scholarship, research or language learning purposes only