» » »

One Way System, Stab The Judge Bass tabs (ver.1)

Artists:  A B C D E F G H I J K L M N O P Q R S T U V W X Y Z # 

Stab The Judge Bass tabs (ver.1)

One Way System Tabs
 Rating:
4/5 (4 votes)
Stab The Judge lessons Tabs too difficult? Try these video lessons and learn fast
1
                Intro
G---------------------------------|---------------------------------|
D---------------------------------|---------------------------------|
A-6-6-6-6-6-6-6-6-4-4-4-4-4-4-4-4-|-6-6-6-6-6-6-6-6-2-2-2-2-2-2-2-2-|
E---------------------------------|---------------------------------|

Verse                           x5
G---------------------------------|---------------------------------|
D---------------------------------|---------------------------------|
A-6-6-6-6-6-6-6-6-4-4-4-4-4-4-4-4-|-2-2-2-2-2-2-2-2-2-2-2-2-4-4-6-6-|
E---------------------------------|---------------------------------|

Chorus
G------------|------------|------------|------------|-----------------|
D--------4---|--------4---|--------4---|--------4---|-----------------|
A-6-6--4---4-|-6-6--4---4-|-6-6--4---4-|-6-6--4---4-|-2-2-2-2-2-2-2-2-|
E------------|------------|------------|------------|-----------------|

Verse                           x4
G---------------------------------|---------------------------------|
D---------------------------------|---------------------------------|
A-6-6-6-6-6-6-6-6-4-4-4-4-4-4-4-4-|-2-2-2-2-2-2-2-2-2-2-2-2-4-4-6-6-|
E---------------------------------|---------------------------------|

Chorus
G------------|------------|------------|------------|-----------------|
D--------4---|--------4---|--------4---|--------4---|-----------------|
A-6-6--4---4-|-6-6--4---4-|-6-6--4---4-|-6-6--4---4-|-2-2-2-2-2-2-2-2-|
E------------|------------|------------|------------|-----------------|

Bridge              
G---------------------------------|---------------------------------|
D---------------------------------|---------------------------------|
A-6-6-6-6-6-6-6-6-4-4-4-4-4-4-4-4-|-6-6-6-6-6-6-6-6-2-2-2-2-2-2-2-2-|
E---------------------------------|---------------------------------|

G---------------------------------|---------------------------------|
D---------------------------------|---------------------------------|
A-6-6-6-6-6-6-6-6-4-4-4-4-4-4-4-4-|-6-6-6-6-6-6-6-6-2-2-2-2-2-2-2-2-|
E---------------------------------|---------------------------------|

Verse                           x3
G---------------------------------|---------------------------------|
D---------------------------------|---------------------------------|
A-6-6-6-6-6-6-6-6-4-4-4-4-4-4-4-4-|-2-2-2-2-2-2-2-2-2-2-2-2-4-4-6-6-|
E---------------------------------|---------------------------------|

Chorus
G------------|------------|------------|------------|-----------------|---|
D--------4---|--------4---|--------4---|--------4---|-----------------|---|
A-6-6--4---4-|-6-6--4---4-|-6-6--4---4-|-6-6--4---4-|-2-2-2-2-2-2-2-2-|-4-|
E------------|------------|------------|------------|-----------------|---|
            
Submit corrections

comments powered by Disqus
↑ Back to top | One Way System Bass for Stab The Judge. Lyrics for acoustic guitar and electric guitar. 1 Tablatures and chords are parodies/interpretations of the original songs. You may use it for private study, scholarship, research or language learning purposes only