» » »

One Way System Tabs (ver.1)

Artists:  A B C D E F G H I J K L M N O P Q R S T U V W X Y Z # 

One Way System Tabs (ver.1)

One Way System
Rating:
0/5 (0 votes)

Hard to play? Try these video lessons and learn fast.
                Intro
E--------------------|--------------------|--------------------|
B--------------------|--------------------|--------------------|
G-9-9-9-9-9-9--12-12-|-9-9-9-9-9-9--12-12-|-9-9-9-9-9-9--12-12-|
D-9-9-9-9-9-9--12-12-|-9-9-9-9-9-9--12-12-|-9-9-9-9-9-9--12-12-|
A-7-7-7-7-7-7--10-10-|-7-7-7-7-7-7--10-10-|-7-7-7-7-7-7--10-10-|
E--------------------|--------------------|--------------------|
  ****PM*****          ****PM*****          ****PM*****
E--------------------|--------------------|--------------------|
B--------------------|--------------------|--------------------|
G-9-9-9-9-9-9--12-12-|-9-9-9-9-9-9--12-12-|-9-9-9-9-9-9--12-12-|
D-9-9-9-9-9-9--12-12-|-9-9-9-9-9-9--12-12-|-9-9-9-9-9-9--12-12-|
A-7-7-7-7-7-7--10-10-|-7-7-7-7-7-7--10-10-|-7-7-7-7-7-7--10-10-|
E--------------------|--------------------|--------------------|
  ****PM*****          ****PM*****          ****PM*****
Verse             x10
E--------------------|
B--------------------|
G-9-9-9-9-9-9--12-12-|
D-9-9-9-9-9-9--12-12-|
A-7-7-7-7-7-7--10-10-|
E--------------------|

Chorus
E-----------------------------------------------------------|
B-----------------------------------------------------------|
G-101010109-9-9-9---------7-7-7--5-5-5-5--------------------|
D-101010109-9-9-9-7-7-7-7-7-7-7--5-5-5-5-5-5-5-5-7-7--9-9-9-|
A-8-8-8-8-7-7-7-7-7-7-7-7-5-5-5--3-3-3-3-5-5-5-5-7-7--9-9-9-|
E-----------------5-5-5-5----------------3-3-3-3-5-5--7-7-7-|

Verse 2           x10
E--------------------|
B--------------------|
G-9-9-9-9-9-9--12-12-|
D-9-9-9-9-9-9--12-12-|
A-7-7-7-7-7-7--10-10-|
E--------------------|

Chorus
E-----------------------------------------------------------|
B-----------------------------------------------------------|
G-101010109-9-9-9---------7-7-7--5-5-5-5--------------------|
D-101010109-9-9-9-7-7-7-7-7-7-7--5-5-5-5-5-5-5-5-7-7--9-9-9-|
A-8-8-8-8-7-7-7-7-7-7-7-7-5-5-5--3-3-3-3-5-5-5-5-7-7--9-9-9-|
E-----------------5-5-5-5----------------3-3-3-3-5-5--7-7-7-|

Bridge/Solo                        x3              
E------------------------------------|
B------------------------------------|
G-8/9-9-9-9-8/7-7-7-7-8/9-9-9-9-12---|
D-8/9-9-9-9-8/7-7-7-7-8/9-9-9-9-12---|
A-6/7-7-7-7-6/7-7-7-7-6/7-7-7-7-10---|
E------------------------------------|

E-^---------^---------^--------------|
B-b---------b---------b--------------|
G-8-8-8-8-8-8-8-8-8-8-8-8-8-8-8-11---|
D------------------------------------|
A------------------------------------|
E------------------------------------|

Chorus
E-----------------------------------------------------------|
B-----------------------------------------------------------|
G-101010109-9-9-9---------7-7-7--5-5-5-5--------------------|
D-101010109-9-9-9-7-7-7-7-7-7-7--5-5-5-5-5-5-5-5-7-7--9-9-9-|
A-8-8-8-8-7-7-7-7-7-7-7-7-5-5-5--3-3-3-3-5-5-5-5-7-7--9-9-9-|
E-----------------5-5-5-5----------------3-3-3-3-5-5--7-7-7-|

Outro
E--------------------|--------------------|--------------------|
B--------------------|--------------------|--------------------|
G-9-9-9-9-9-9--12-12-|-9-9-9-9-9-9--12-12-|-9-9-9-9-9-9--12-12-|
D-9-9-9-9-9-9--12-12-|-9-9-9-9-9-9--12-12-|-9-9-9-9-9-9--12-12-|
A-7-7-7-7-7-7--10-10-|-7-7-7-7-7-7--10-10-|-7-7-7-7-7-7--10-10-|
E--------------------|--------------------|--------------------|
  ****PM*****          ****PM*****          ****PM*****
E--------------------|--------------------|
B--------------------|--------------------|
G-9-9-9-9-9-9-10-10--|-9------------------|
D-9-9-9-9-9-9-10-10--|-9------------------|
A-7-7-7-7-7-7-10-10--|-7------------------|
E--------------------|--------------------|
  ****PM*****        
            
Hard to play? Try these video lessons and learn fast. | Correct




comments powered by Disqus
↑ Back to top | Tablatures and chords are parodies/interpretations of the original songs. You may use it for private study, scholarship, research or language learning purposes only