» » »

Nightmare Bass tabs (ver.1)

Artists:  A B C D E F G H I J K L M N O P Q R S T U V W X Y Z # 

Nightmare Bass tabs (ver.1)

One Way System
Rating:
0/5 (0 votes)

Hard to play? Try these video lessons and learn fast.
                Intro
G----------|
D----------|
A-7--------|
E----------|

Verse       
G--------------------------------------------------------|
D--------9-7-6---------9-7-6---------7-6-4---------7-6-4-|
A-7-7--7--------7-7--7--------5-5--5--------5-5--5-------|
E--------------------------------------------------------|

Chorus
G----------------------------|----------------------------|
D---------------0-0--0-2-0---|---------------0-0--0-2-0---|
A-2-2--2-3-3--3------------3-|-2-2--2-3-3--3------------3-|
E----------------------------|----------------------------|

G----------------------------|----------------------------|
D---------------0-0--0-2-0---|---------------0-0--0-2-0---|
A-2-2--2-3-3--3------------3-|-2-2--2-3-3--3------------3-|
E----------------------------|----------------------------|

Verse 2      
G--------------------------------------------------------|
D--------9-7-6---------9-7-6---------7-6-4---------7-6-4-|
A-7-7--7--------7-7--7--------5-5--5--------5-5--5-------|
E--------------------------------------------------------|

Chorus
G----------------------------|----------------------------|
D---------------0-0--0-2-0---|---------------0-0--0-2-0---|
A-2-2--2-3-3--3------------3-|-2-2--2-3-3--3------------3-|
E----------------------------|----------------------------|

G----------------------------|----------------------------|
D---------------0-0--0-2-0---|---------------0-0--0-2-0---|
A-2-2--2-3-3--3------------3-|-2-2--2-3-3--3------------3-|
E----------------------------|----------------------------|

Solo/Bridge                x3
G----------------------------|
D--------9-8-7---------9-8-7-|
A-7-7--7--------7-7--7-------|
E----------------------------|

Verse 3      
G--------------------------------------------------------|
D--------9-7-6---------9-7-6---------7-6-4---------7-6-4-|
A-7-7--7--------7-7--7--------5-5--5--------5-5--5-------|
E--------------------------------------------------------|

Chorus
G----------------------------|----------------------------|
D---------------0-0--0-2-0---|---------------0-0--0-2-0---|
A-2-2--2-3-3--3------------3-|-2-2--2-3-3--3------------3-|
E----------------------------|----------------------------|

G----------------------------|----------------------------|
D---------------0-0--0-2-0---|---------------0-0--0-2-0---|
A-2-2--2-3-3--3------------3-|-2-2--2-3-3--3------------3-|
E----------------------------|----------------------------|

Outro (play till end)
G----------------------------|
D--------9-8-7---------9-8-7-|
A-7-7--7--------7-7--7-------|
E----------------------------|
            
Hard to play? Try these video lessons and learn fast. | Correct




comments powered by Disqus
↑ Back to top | Tablatures and chords are parodies/interpretations of the original songs. You may use it for private study, scholarship, research or language learning purposes only