» » »

Me And You Bass tabs (ver.1)

Artists:  A B C D E F G H I J K L M N O P Q R S T U V W X Y Z # 

Me And You Bass tabs (ver.1)

One Way System
Rating:
0/5 (0 votes)

Hard to play? Try these video lessons and learn fast.
                Intro
G-----------------------------------|
D-----------------------------------|
A-----------------------------------|
E-5--------5-------5-------5--------|

Verse                           x4
G---------------------------------|
D---------------------------------|
A-----------------5-5-7-7-5-5-7-7-|
E-5-5-5-5-8-8-8-8-----------------|

Pre-Chorus                      x2
G---------------------------------|
D---------------------------------|
A---------5-5-5-5-----------------|
E-3-3-3-3---------5-5-5-5-5-5-5-5-|

Chorus
G-----------------------------------|-----------------------------------|
D-----------------------------------|-----------------------------------|
A-9--9--9--9--9--9--7-7-7-7-7-7-7-7-|-9--9--9--9--9--9--5-5-0---7-7-7-7-|
E-----------------------------------|-----------------------------------|

G-----------------------------------|-----------------------------------|
D-----------------------------------|-----------------------------------|
A-9--9--9--9--9--9--7-7-7-7-7-7-7-7-|-9--9--9--9--9--9--5-5-0---7-7-7-7-|
E-----------------------------------|-----------------------------------|

Verse 2                         x4
G---------------------------------|
D---------------------------------|
A-----------------5-5-7-7-5-5-7-7-|
E-5-5-5-5-8-8-8-8-----------------|

Pre-Chorus                      x2
G---------------------------------|
D---------------------------------|
A---------5-5-5-5-----------------|
E-3-3-3-3---------5-5-5-5-5-5-5-5-|

Chorus
G-----------------------------------|-----------------------------------|
D-----------------------------------|-----------------------------------|
A-9--9--9--9--9--9--7-7-7-7-7-7-7-7-|-9--9--9--9--9--9--5-5-0---7-7-7-7-|
E-----------------------------------|-----------------------------------|

G-----------------------------------|-----------------------------------|
D-----------------------------------|-----------------------------------|
A-9--9--9--9--9--9--7-7-7-7-7-7-7-7-|-9--9--9--9--9--9--5-5-0---7-7-7-7-|
E-----------------------------------|-----------------------------------|

Bridge
G-----------------------------------|
D-----------------------------------|
A-----------------------------------|
E-5--------5-------5-------5--------|

Verse 3                         x4
G---------------------------------|
D---------------------------------|
A-----------------5-5-7-7-5-5-7-7-|
E-5-5-5-5-8-8-8-8-----------------|

Pre-Chorus                      x2
G---------------------------------|
D---------------------------------|
A---------5-5-5-5-----------------|
E-3-3-3-3---------5-5-5-5-5-5-5-5-|

Chorus
G-----------------------------------|-----------------------------------|
D-----------------------------------|-----------------------------------|
A-9--9--9--9--9--9--7-7-7-7-7-7-7-7-|-9--9--9--9--9--9--5-5-0---7-7-7-7-|
E-----------------------------------|-----------------------------------|

G-----------------------------------|-----------------------------------|
D-----------------------------------|-----------------------------------|
A-9--9--9--9--9--9--7-7-7-7-7-7-7-7-|-9--9--9--9--9--9--5-5-0---7-7-7-7-|
E-----------------------------------|-----------------------------------|

G-----------------------------------|-----------------------------------|
D-----------------------------------|-----------------------------------|
A-9--9--9--9--9--9--7-7-7-7-7-7-7-7-|-9--9--9--9--9--9--5-5-0---7-7-7-7-|
E-----------------------------------|-----------------------------------|
            
Hard to play? Try these video lessons and learn fast. | Correct




comments powered by Disqus
↑ Back to top | Tablatures and chords are parodies/interpretations of the original songs. You may use it for private study, scholarship, research or language learning purposes only