» » »

Me And You Tabs (ver.1)

Artists:  A B C D E F G H I J K L M N O P Q R S T U V W X Y Z # 

Me And You Tabs (ver.1)

One Way System
Rating:
0/5 (0 votes)

Hard to play? Try these video lessons and learn fast.
                Intro
E-----------------------------------|
B-----------------------------------|
G-----------------------------------|
D-7--------7-------7-------7--------|
A-7--------7-------7-------7--------|
E-5--------5-------5-------5--------|

Verse                            x4
E----------------------------------|
B----------------------------------|
G------------------7-7-9-9-7-7-9-9-|
D-7-7-7-7-10101010-7-7-9-9-7-7-9-9-|
A-7-7-7-7-10101010-5-5-7-7-5-5-7-7-|
E-5-5-5-5-8-8-8-8------------------|

Pre-Chorus                      x2
E---------------------------------|
B---------------------------------|
G---------7-7-7-7-----------------|
D---------7-7-7-7-7-7-7-7-7-7-7-7-|
A-5-5-5-5-5-5-5-5-7-7-7-7-7-7-7-7-|
E-3-3-3-3---------5-5-5-5-5-5-5-5-|

Chorus
E-----------------------------------|-----------------------------------|
B-----------------------------------|-----------------------------------|
G-11-11-11-11-11-11-9---------------|-11-11-11-11-11-11-7-7-7---9-9-9-9-|
D-11-11-11-11-11-11-9---------------|-11-11-11-11-11-11-7-7-7---9-9-9-9-|
A-9--9--9--9--9--9--7---------------|-9--9--9--9--9--9--5-5-0---7-7-7-7-|
E-----------------------------------|-----------------------------------|

E-----------------------------------|-----------------------------------|
B-----------------------------------|-----------------------------------|
G-11-11-11-11-11-11-9---------------|-11-11-11-11-11-11-7-7-7---9-9-9-9-|
D-11-11-11-11-11-11-9---------------|-11-11-11-11-11-11-7-7-7---9-9-9-9-|
A-9--9--9--9--9--9--7---------------|-9--9--9--9--9--9--5-5-0---7-7-7-7-|
E-----------------------------------|-----------------------------------|

Verse 2                          x4
E----------------------------------|
B----------------------------------|
G------------------7-7-9-9-7-7-9-9-|
D-7-7-7-7-10101010-7-7-9-9-7-7-9-9-|
A-7-7-7-7-10101010-5-5-7-7-5-5-7-7-|
E-5-5-5-5-8-8-8-8------------------|

Pre-Chorus                      x2
E---------------------------------|
B---------------------------------|
G---------7-7-7-7-----------------|
D---------7-7-7-7-7-7-7-7-7-7-7-7-|
A-5-5-5-5-5-5-5-5-7-7-7-7-7-7-7-7-|
E-3-3-3-3---------5-5-5-5-5-5-5-5-|

Chorus
E-----------------------------------|-----------------------------------|
B-----------------------------------|-----------------------------------|
G-11-11-11-11-11-11-9---------------|-11-11-11-11-11-11-7-7-7---9-9-9-9-|
D-11-11-11-11-11-11-9---------------|-11-11-11-11-11-11-7-7-7---9-9-9-9-|
A-9--9--9--9--9--9--7---------------|-9--9--9--9--9--9--5-5-0---7-7-7-7-|
E-----------------------------------|-----------------------------------|

E-----------------------------------|-----------------------------------|
B-----------------------------------|-----------------------------------|
G-11-11-11-11-11-11-9---------------|-11-11-11-11-11-11-7-7-7---9-9-9-9-|
D-11-11-11-11-11-11-9---------------|-11-11-11-11-11-11-7-7-7---9-9-9-9-|
A-9--9--9--9--9--9--7---------------|-9--9--9--9--9--9--5-5-0---7-7-7-7-|
E-----------------------------------|-----------------------------------|

Bridge
E-----------------------------------|
B-----------------------------------|
G-----------------------------------|
D-7--------7-------7-------7--------|
A-7--------7-------7-------7--------|
E-5--------5-------5-------5--------|

Verse 3                          x4
E----------------------------------|
B----------------------------------|
G------------------7-7-9-9-7-7-9-9-|
D-7-7-7-7-10101010-7-7-9-9-7-7-9-9-|
A-7-7-7-7-10101010-5-5-7-7-5-5-7-7-|
E-5-5-5-5-8-8-8-8------------------|

Pre-Chorus                      x2
E---------------------------------|
B---------------------------------|
G---------7-7-7-7-----------------|
D---------7-7-7-7-7-7-7-7-7-7-7-7-|
A-5-5-5-5-5-5-5-5-7-7-7-7-7-7-7-7-|
E-3-3-3-3---------5-5-5-5-5-5-5-5-|

Chorus
E-----------------------------------|-----------------------------------|
B-----------------------------------|-----------------------------------|
G-11-11-11-11-11-11-9---------------|-11-11-11-11-11-11-7-7-7---9-9-9-9-|
D-11-11-11-11-11-11-9---------------|-11-11-11-11-11-11-7-7-7---9-9-9-9-|
A-9--9--9--9--9--9--7---------------|-9--9--9--9--9--9--5-5-0---7-7-7-7-|
E-----------------------------------|-----------------------------------|

E-----------------------------------|-----------------------------------|
B-----------------------------------|-----------------------------------|
G-11-11-11-11-11-11-9---------------|-11-11-11-11-11-11-7-7-7---9-9-9-9-|
D-11-11-11-11-11-11-9---------------|-11-11-11-11-11-11-7-7-7---9-9-9-9-|
A-9--9--9--9--9--9--7---------------|-9--9--9--9--9--9--5-5-0---7-7-7-7-|
E-----------------------------------|-----------------------------------|

E-----------------------------------|-----------------------------------|
B-----------------------------------|-----------------------------------|
G-11-11-11-11-11-11-9---------------|-11-11-11-11-11-11-7-7-7---9-9-9-9-|
D-11-11-11-11-11-11-9---------------|-11-11-11-11-11-11-7-7-7---9-9-9-9-|
A-9--9--9--9--9--9--7---------------|-9--9--9--9--9--9--5-5-0---7-7-7-7-|
E-----------------------------------|-----------------------------------|
            
Hard to play? Try these video lessons and learn fast. | Correct




comments powered by Disqus
↑ Back to top | Tablatures and chords are parodies/interpretations of the original songs. You may use it for private study, scholarship, research or language learning purposes only