» » »

One Way System, Jerusalem Tabs (ver.1)

Artists:  A B C D E F G H I J K L M N O P Q R S T U V W X Y Z # 

Jerusalem Tabs (ver.1)

One Way System Tabs
 Rating:
4/5 (4 votes)
Jerusalem lessons Tabs too difficult? Try these video lessons and learn fast
                Intro
E---------------|---------------|
B---------------|---------------|
G---------------|---------5-7---|
D---------5-7---|-7-7-5-5-5-7---|
A-7-7-5-5-3-5---|-7-7-5-5-3-5---|
E-5-5-3-3-------|-5-5-3-3-------|

Verse                           x4
E---------------------------------|
B---------------------------------|
G-------------------------5-5-7-7-|
D-7-7-7-7-7-7-7-7-5-5-5-5-5-5-7-7-|
A-7-7-7-7-7-7-7-7-5-5-5-5-3-3-5-5-|
E-5-5-5-5-5-5-5-5-3-3-3-3---------|

Chorus "Jerusalem..."
E-----------------------------------------------------------------|
B-----------------------------------------------------------------|
G-9-9-9-9-9-9-9-9-7-7-7-7-7-7-7-7-9-9-9-9-9-9-9-9-5-5-5-5-5-5-5-5-|
D-9-9-9-9-9-9-9-9-7-7-7-7-7-7-7-7-9-9-9-9-9-9-9-9-5-5-5-5-5-5-5-5-|
A-7-7-7-7-7-7-7-7-5-5-5-5-5-5-5-5-7-7-7-7-7-7-7-7-3-3-3-3-3-3-3-3-|
E-----------------------------------------------------------------|

"Everybodies looking out for number one..."
E-----------------------------------------------------------------|
B-----------------------------------------------------------------|
G-7-7-7-7-7-7-7-7-5-5-5-5-5-5-5-5-7-7-7-7-7-7-7-7-7-5-5-5-5-5-5-5-|
D-7-7-7-7-7-7-7-7-5-5-5-5-5-5-5-5-7-7-7-7-7-7-7-7-5-5-5-5-5-5-5-5-|
A-5-5-5-5-5-5-5-5-3-3-3-3-3-3-3-3-5-5-5-5-5-5-5-5-3-3-3-3-3-3-3-3-|
E-----------------------------------------------------------------|

Verse 2                         x4
E---------------------------------|
B---------------------------------|
G-------------------------5-5-7-7-|
D-7-7-7-7-7-7-7-7-5-5-5-5-5-5-7-7-|
A-7-7-7-7-7-7-7-7-5-5-5-5-3-3-5-5-|
E-5-5-5-5-5-5-5-5-3-3-3-3---------|

Chorus "Jerusalem..."
E-----------------------------------------------------------------|
B-----------------------------------------------------------------|
G-9-9-9-9-9-9-9-9-7-7-7-7-7-7-7-7-9-9-9-9-9-9-9-9-5-5-5-5-5-5-5-5-|
D-9-9-9-9-9-9-9-9-7-7-7-7-7-7-7-7-9-9-9-9-9-9-9-9-5-5-5-5-5-5-5-5-|
A-7-7-7-7-7-7-7-7-5-5-5-5-5-5-5-5-7-7-7-7-7-7-7-7-3-3-3-3-3-3-3-3-|
E-----------------------------------------------------------------|

"Everybodies looking out for number one..."
E-----------------------------------------------------------------|
B-----------------------------------------------------------------|
G-7-7-7-7-7-7-7-7-5-5-5-5-5-5-5-5-7-7-7-7-7-7-7-7-7-5-5-5-5-5-5-5-|
D-7-7-7-7-7-7-7-7-5-5-5-5-5-5-5-5-7-7-7-7-7-7-7-7-5-5-5-5-5-5-5-5-|
A-5-5-5-5-5-5-5-5-3-3-3-3-3-3-3-3-5-5-5-5-5-5-5-5-3-3-3-3-3-3-3-3-|
E-----------------------------------------------------------------|

Bridge                          x4
E---------------------------------|
B---------------------------------|
G-------------------------5-5-7-7-|
D-7-7-7-7-7-7-7-7-5-5-5-5-5-5-7-7-|
A-7-7-7-7-7-7-7-7-5-5-5-5-3-3-5-5-|
E-5-5-5-5-5-5-5-5-3-3-3-3---------|

Verse 3                         x4
E---------------------------------|
B---------------------------------|
G-------------------------5-5-7-7-|
D-7-7-7-7-7-7-7-7-5-5-5-5-5-5-7-7-|
A-7-7-7-7-7-7-7-7-5-5-5-5-3-3-5-5-|
E-5-5-5-5-5-5-5-5-3-3-3-3---------|

Chorus "Jerusalem..."
E-----------------------------------------------------------------|
B-----------------------------------------------------------------|
G-9-9-9-9-9-9-9-9-7-7-7-7-7-7-7-7-9-9-9-9-9-9-9-9-5-5-5-5-5-5-5-5-|
D-9-9-9-9-9-9-9-9-7-7-7-7-7-7-7-7-9-9-9-9-9-9-9-9-5-5-5-5-5-5-5-5-|
A-7-7-7-7-7-7-7-7-5-5-5-5-5-5-5-5-7-7-7-7-7-7-7-7-3-3-3-3-3-3-3-3-|
E-----------------------------------------------------------------|

E-----------------------------------------------------------------|
B-----------------------------------------------------------------|
G-9-9-9-9-9-9-9-9-7-7-7-7-7-7-7-7-9-9-9-9-9-9-9-9-5-5-5-5-5-5-5-5-|
D-9-9-9-9-9-9-9-9-7-7-7-7-7-7-7-7-9-9-9-9-9-9-9-9-5-5-5-5-5-5-5-5-|
A-7-7-7-7-7-7-7-7-5-5-5-5-5-5-5-5-7-7-7-7-7-7-7-7-3-3-3-3-3-3-3-3-|
E-----------------------------------------------------------------|

"Everybodies looking out for number one..."
E-----------------------------------------------------------------|
B-----------------------------------------------------------------|
G-7-7-7-7-7-7-7-7-5-5-5-5-5-5-5-5-7-7-7-7-7-7-7-7-7-5-5-5-5-5-5-5-|
D-7-7-7-7-7-7-7-7-5-5-5-5-5-5-5-5-7-7-7-7-7-7-7-7-5-5-5-5-5-5-5-5-|
A-5-5-5-5-5-5-5-5-3-3-3-3-3-3-3-3-5-5-5-5-5-5-5-5-3-3-3-3-3-3-3-3-|
E-----------------------------------------------------------------|

Verse 4                         x4
E---------------------------------|
B---------------------------------|
G-------------------------5-5-7-7-|
D-7-7-7-7-7-7-7-7-5-5-5-5-5-5-7-7-|
A-7-7-7-7-7-7-7-7-5-5-5-5-3-3-5-5-|
E-5-5-5-5-5-5-5-5-3-3-3-3---------|
            
Submit corrections

comments powered by Disqus
↑ Back to top | One Way System Tabs for Jerusalem. Lyrics for acoustic guitar and electric guitar. Tablatures and chords are parodies/interpretations of the original songs. You may use it for private study, scholarship, research or language learning purposes only