» » »

One Way System, Gutter Boy Tabs (ver.1)

Artists:  A B C D E F G H I J K L M N O P Q R S T U V W X Y Z # 

Gutter Boy Tabs (ver.1)

One Way System Tabs
Rating:
0/5 (0 votes)
Gutter Boy lessons Tabs too difficult? Try these video lessons and learn fast
                Intro               x5
e---------------------|
B---------------------|
G-----------77-2-55---|
D-999999999-77-2-55---|
A-999999999-55-0-33---|
E-777777777-----------|
   |-------|
    Palm Muted

Verse               x2
e---------------------|
B---------------------|
G-----------77-2-55---|
D-999999999-77-2-55---|
A-999999999-55-0-33---|
E-777777777-----------|
   |-------|
    Palm Muted

Chorus      x6
e-------------|
B-------------|
G-55-44-99-88-|
D-55-44-99-88-|
A-33-22-77-66-|
E-------------|

Verse 2             x4
e---------------------|
B---------------------|
G-----------77-2-55---|
D-999999999-77-2-55---|
A-999999999-55-0-33---|
E-777777777-----------|
   |-------|
    Palm Muted

Chorus      x6
e-------------|
B-------------|
G-55-44-99-88-|
D-55-44-99-88-|
A-33-22-77-66-|
E-------------|

Bridge                    x5  
E-------------|-------------|
B-------------|-------------|
G-9-----------|-------------|
D-9-----------|-------------|
A-7-----------|-------------|
E-------------|-------------|

Chorus        x6
e---------------|
B---------------|
G-*/55-44-99-88-| *pickslide back into chorus
D-*/55-44-99-88-|
A-*/33-22-77-66-|
E---------------|
            
Submit corrections

comments powered by Disqus
↑ Back to top | One Way System Tabs for Gutter Boy. Lyrics for acoustic guitar and electric guitar. Tablatures and chords are parodies/interpretations of the original songs. You may use it for private study, scholarship, research or language learning purposes only