» » »

Gutter Boy Bass tabs (ver.1)

Artists:  A B C D E F G H I J K L M N O P Q R S T U V W X Y Z # 

Gutter Boy Bass tabs (ver.1)

One Way System
Rating:
0/5 (0 votes)

Hard to play? Try these video lessons and learn fast.
                Intro                                                           x4
G--------------------------------|--------------------------------|
D--------------------------------|--------------------------------|
A--------------------------------|---------------5-7--5-5--0--3-3-|
E--------------------------------|-7-7-7-7-7-7-7------------------|

Verse                          x2
G--------------------------------|
D--------------------------------|
A---------------5-7--5-5--0--3-3-|
E-7-7-7-7-7-7-7------------------|

Chorus      x6
G-------------|
D-------------|
A-33-22-77-66-|
E-------------|

Verse 2                        x4
G--------------------------------|
D--------------------------------|
A---------------5-7--5-5--0--3-3-|
E-7-7-7-7-7-7-7------------------|

Chorus      x6
G-------------|
D-------------|
A-33-22-77-66-|
E-------------|

Bridge                    x5  
G-------------|-------------|
D-------------|-------------|
A-7-----------|-------------|
E-------------|-------------|

Chorus                         x6
G--------------------------------|
D--------------------------------|
A---------------5-7--5-5--0--3-3-|
E-7-7-7-7-7-7-7------------------|
            
Hard to play? Try these video lessons and learn fast. | Correct




comments powered by Disqus
↑ Back to top | Tablatures and chords are parodies/interpretations of the original songs. You may use it for private study, scholarship, research or language learning purposes only