» » »

Forgotten Generation Bass tabs (ver.1)

Artists:  A B C D E F G H I J K L M N O P Q R S T U V W X Y Z # 

Forgotten Generation Bass tabs (ver.1)

One Way System
Rating:
0/5 (0 votes)

Hard to play? Try these video lessons and learn fast.
                Intro (Bass in at 5 seconds)
G-----------------------------------------|
D-2/12------------------------------------|
A-----------------------------------------|
E-----------------------------------------|

Verse                                                          x2
G----------------------------------------------------------------|
D-------------------------6-7-9----------------------------------|
A-3-3-3-3-3-3-3-3-7-7-7-7--------3-3-3-3-3-3-3-3-7-7-7-7-7-7-7-7-|
E----------------------------------------------------------------|

Chorus                          x3
G---------------------------------|
D-5-5-5-5-------------------------|
A---------5-5-5-5-7-7-7-7---------|
E-------------------------7-7-7-7-|

Verse 2                                                        x2
G----------------------------------------------------------------|
D-------------------------6-7-9----------------------------------|
A-3-3-3-3-3-3-3-3-7-7-7-7--------3-3-3-3-3-3-3-3-7-7-7-7-7-7-7-7-|
E----------------------------------------------------------------|

Chorus                          x3
G---------------------------------|
D-5-5-5-5-------------------------|
A---------5-5-5-5-7-7-7-7---------|
E-------------------------7-7-7-7-|

Bridge                             x3
G------------------------------------|
D----------------------------9-10-11-|
A-5-5-5-5-7-7-7-7-9-9-9-9-10---------|
E------------------------------------|

Verse 3                                                        x2
G----------------------------------------------------------------|
D-------------------------6-7-9----------------------------------|
A-3-3-3-3-3-3-3-3-7-7-7-7--------3-3-3-3-3-3-3-3-7-7-7-7-7-7-7-7-|
E----------------------------------------------------------------|

Chorus                          x3
G---------------------------------|------------------|--------------|
D-5-5-5-5-------------------------|-5-5-5-5----------|-5-5-5-5-2/12-|
A---------5-5-5-5-7-7-7-7---------|---------5555-----|--------------|
E-------------------------7-7-7-7-|------------------|--------------|
            
Hard to play? Try these video lessons and learn fast. | Correct




comments powered by Disqus
↑ Back to top | Tablatures and chords are parodies/interpretations of the original songs. You may use it for private study, scholarship, research or language learning purposes only