» » »

One Way System, Corrupted World Bass tabs (ver.1)

Artists:  A B C D E F G H I J K L M N O P Q R S T U V W X Y Z # 

Corrupted World Bass tabs (ver.1)

One Way System Tabs
 Rating:
4/5 (4 votes)
Corrupted World lessons Tabs too difficult? Try these video lessons and learn fast
1
                Intro
G----------------------------------------|
D----------------------------------------|
A-7-7-7-7-7-7-7-7-7-7-7-7-7-7-7-7-(ETC)--| (Strum sloppy bending string)
E----------------------------------------|

Verse                                       x4
G---------------------------------------------|
D-----6-6-7-7-9-9-----4-4-5-5-6-6---------1-2-|
A-7-7-------------5-5-------------4--4--2-----|
E---------------------------------------------|

Chorus                          x4
G---------------------------------|
D---------------------------------|
A-5-5-5-5---------2-2-2-2-2-2-2-2-|
E---------5-5-5-5-----------------|

Verse 2                                     x4
G---------------------------------------------|
D-----6-6-7-7-9-9-----4-4-5-5-6-6---------1-2-|
A-7-7-------------5-5-------------4--4--2-----|
E---------------------------------------------|

Chorus                          x4
G---------------------------------|
D---------------------------------|
A-5-5-5-5---------2-2-2-2-2-2-2-2-|
E---------5-5-5-5-----------------|

Bridge/Solo                                                  x3
G----------------------------|---------------------------------|
D----------------------------|---------------------------------|
A-7--------7--------7--------|-5-5-5-5---------2-2-2-2-2-2-2-2-|
E----------------------------|---------5-5-5-5-----------------|

Verse 3                                     x4
G---------------------------------------------|
D-----6-6-7-7-9-9-----4-4-5-5-6-6---------1-2-|
A-7-7-------------5-5-------------4--4--2-----|
E---------------------------------------------|

Chorus                          x6
G---------------------------------|
D---------------------------------|
A-5-5-5-5---------2-2-2-2-2-2-2-2-|
E---------5-5-5-5-----------------|
            
Submit corrections

comments powered by Disqus
↑ Back to top | One Way System Bass for Corrupted World. Lyrics for acoustic guitar and electric guitar. 1 Tablatures and chords are parodies/interpretations of the original songs. You may use it for private study, scholarship, research or language learning purposes only