» » »

Breaking In Bass tabs (ver.1)

Artists:  A B C D E F G H I J K L M N O P Q R S T U V W X Y Z # 

Breaking In Bass tabs (ver.1)

One Way System
Rating:
0/5 (0 votes)

Hard to play? Try these video lessons and learn fast.
                Intro/Verse                     x6
G---------------------------------|
D-2-2-2-2-2-2-2-2-----------------|
A-----------------3-3-3-3-2-2-2-2-|
E---------------------------------|

Chorus                                                          x2
G-----------------------------------------------------------------|
D-----------------2-2-2-2-2-2-2-2---------------------------------|
A-0-0-0-0-0-0-0-0-----------------3-3-3-3-3-3-3-3-5-5-5-5-5-5-5-5-|
E-----------------------------------------------------------------|

Verse 2                         x6
G---------------------------------|
D-2-2-2-2-2-2-2-2-----------------|
A-----------------3-3-3-3-2-2-2-2-|
E---------------------------------|

Chorus                                                          x2
G-----------------------------------------------------------------|
D-----------------2-2-2-2-2-2-2-2---------------------------------|
A-0-0-0-0-0-0-0-0-----------------3-3-3-3-3-3-3-3-5-5-5-5-5-5-5-5-|
E-----------------------------------------------------------------|

Solo                                                              x9
G---------------------------------|---------------------------------|
D-2-------------------------------|-2-2-2-2-2-2-2-2-----------------|
A---------------------------------|-----------------3-3-3-3-2-2-2-2-|
E---------------------------------|---------------------------------|

Chorus                                                          x2
G-----------------------------------------------------------------|
D-----------------2-2-2-2-2-2-2-2---------------------------------|
A-0-0-0-0-0-0-0-0-----------------3-3-3-3-3-3-3-3-5-5-5-5-5-5-5-5-|
E-----------------------------------------------------------------|

Outro
G---------------------|
D------2--------------|
A-0---------3----5----|
E---------------------|
            
Hard to play? Try these video lessons and learn fast. | Correct




comments powered by Disqus
↑ Back to top | Tablatures and chords are parodies/interpretations of the original songs. You may use it for private study, scholarship, research or language learning purposes only