» » »

Ain't No Answers Tabs (ver.1)

Artists:  A B C D E F G H I J K L M N O P Q R S T U V W X Y Z # 

Ain't No Answers Tabs (ver.1)

One Way System
Rating:
0/5 (0 votes)
Tabs too difficult? Try these video lessons and learn fast.
                Intro/Verse
E------------------------------|
B------------------------------|
G------------------------------|
D-9-9-9-9-9-9-9-9-9-9-9-9--9-7-|
A-7-7-7-7-7-7-7-7-7-7-7-7--7-5-|
E------------------------------|

Chorus ("there aint no answers...")
E---------------------------------|
B---------------------------------|
G-4-4-4-4-4-4-4-4-7-7-7-7-5-5-5-5-|
D-4-4-4-4-4-4-4-4-7-7-7-7-5-5-5-5-|
A-2-2-2-2-2-2-2-2-5-5-5-5-3-3-3-3-|
E---------------------------------|

Bridge
E-----------------------------------------------------------------|
B-----------------------------------------------------------------|
G-9-9-9-9-9-9-9-9-9-9-9-9-9-9-9-9-7-7-7-7-7-7-7-7-7-7-7-7-7-7-7-7-|
D-9-9-9-9-9-9-9-9-9-9-9-9-9-9-9-9-7-7-7-7-7-7-7-7-7-7-7-7-7-7-7-7-|
A-7-7-7-7-7-7-7-7-7-7-7-7-7-7-7-7-5-5-5-5-5-5-5-5-5-5-5-5-5-5-5-5-|
E-----------------------------------------------------------------|

Just listen for order
            
Tabs too difficult? Try these video lessons and learn fast.


comments powered by Disqus
↑ Back to top | Tablatures and chords are parodies/interpretations of the original songs. You may use it for private study, scholarship, research or language learning purposes only