» » »

Onesidezero, Summertime Tabs (ver.1)

Artists:  A B C D E F G H I J K L M N O P Q R S T U V W X Y Z # 

Summertime Tabs (ver.1)

Onesidezero Tabs
Rating:
0/5 (0 votes)
Summertime lessons Tabs too difficult? Try these video lessons and learn fast
                Song- Summertime
Artist- Onesidezero

This is a great song by a great band....  It is coming out on thier upcoming EP entitled "Songs From a Cardboard Box"...  If you hear the song you will be able tell how it sounds....  Good Luck!!

Intro Clean (strumming not shown)
E------------------------------------------------------------
B------------------------------------------------------------
G------------------------------------------------------------
D--8-8-8-8-8-8-8--7-7-7-7-7-7-7--10-10-10-10-10-10-10--------
A--6-6-6-6-6-6-6--5-5-5-5-5-5-5---8--8--8--8--8--8--8--------
D--6-6-6-6-6-6-6--5-5-5-5-5-5-5---8--8--8--8--8--8--8--------

Intro Distorted- Played over Clean part
E--------------------------------------------------
B--------------------------------------------------
G---/3--1--0--1--1/3--1--0--1--1/5---1--0--1--1/3--
D--------------------------------------------------
A--------------------------------------------------
D--------------------------------------------------


Verse- Let ring
E------------------------
B------------------------
G------------------------
D--8-----12-----5--------
A--6-----10-----3--------
D--6-----10-----3--------

Bridge- didnt tab the strumming but these are the notes
E--------------------------------------
B--8--9--11--13--14--16----------------
G--7--8--10--12--13--15----------------
D--------------------------------------
A--------------------------------------
D--------------------------------------

Heavy Part- Outro (palm mute Heavily Distorted) 
E-------------------------------------------
B-------------------------------------------
G-------------------------------------------
D--0-0-0-x-0-0-0-0-x-0-0-1-1-1-x-1-x-1/3-3-3
A--0-0-0-x-0-0-0-0-x-0-0-1-1-1-x-1-x-1/3-3-3
D--0-0-0-x-0-0-0-0-x-0-0-1-1-1-x-1-x-1/3-3-3
            
Submit corrections

comments powered by Disqus
↑ Back to top | Onesidezero Tabs for Summertime. Lyrics for acoustic guitar and electric guitar. Tablatures and chords are parodies/interpretations of the original songs. You may use it for private study, scholarship, research or language learning purposes only