>
 >
Instead Laugh 2

Instead Laugh 2 Guitar Tabs

Onesidezero - Instead Laugh 2 chords, tabs, tablatures, lyrics

Guitar lessons | Add/correct | Request | Top 50 tabs Artists:  A B C D E F G H I J K L M N O P Q R S T U V W X Y Z 0-9

Instead Laugh 2 Guitar Tabs – Onesidezero

CD, Sheet music, Poster

Do you like Instead Laugh 2? Share with your friends now
TabsTabs v2Tabs v3
In the opening riff, Brett plays chords over what Levon is playing.  If you are by 
yourself you can just use pick scratches.  This tab is just bits and pieces that I 
knew but I will try to tab out the rest of the stuff when I can.  Just rate me on 
how these parts are tabbed.

Tuning: Drop D for all of their songs

Levon (Opening Riff) Listen to the song to make sure that the scratches are in  the
right place.
E---------------------------------------------------------
B---------------------------------------------------------
G---0-xx-3-xx-3-xx-2-xx-0-xx-3-xx-3-xx-2-xx-0-------------
D---------------------------------------------------------
A---------------------------------------------------------
D---------------------------------------------------------

E-----------------------------------------------------
B---------------------2h3-----------------------------
G---xx-3-xx-3-xxxxxx-------xxxx-3-xx-3-xxxxxx---------
D----------------------------------------------3h5----
A-----------------------------------------------------
D-----------------------------------------------------

Riff 2
E------------------------------------------------------------
B------------------------------------------------------------
G--7-xx-7/9-999-10--x-x-10/--12-12/14-----------------------
D--x-xx-x-x-xxx--x--x--x--x---x---x--x-----------------------
A--5-xx-5/7-777/-8--x--x--8/--10-10/12-----------------------
D------------------------------------------------------------

Riff 3
E-------------------------------------------------------------------------
B-------------------------------------------------------------------------
G---------------------------------7-xx-7/9-999-10--x--x-10/--12-12/14-----
D--0--10-10-10--6-6-6/7-7-7-------x-xx-x-x-xxx--x--x--x--x---x--x--x------
A--0--10-10-10--6-6-6/7-7-7-------5-xx-5/7-777/-8--x--x--8/--10-10/12-----
D--0--10-10-10--6-6-6/7-7-7-----------------------------------------------

Solo (some parts are missing I will try to tab them out later.)
E----------------------------------------------------------------
B----------------------------------------------------------------
G----------------------------------------------------------------
D--8-8-8-8h10h12-7-7--77h8p7--5h7p53h5p3-2--3--2-3-2------------
A------------------------------------------------------3---------
D----------------------------------------------------------------


E-------------------------------------------------
B-------------------------------------------------
G-------------------------------------------------
D--15--14-14--12-12--12/17--15-15--14-14-12p11h12
A-------------------------------------------------
D-------------------------------------------------

E---------------------------------------------
B---------------------------------------------
G---------------------------------------------
D--15--14-14--12-1211h12p11--1214\----------
A---------------------------------------------
D---------------------------------------------





Comments


Popular Onesidezero tabs & chords
Run Around Bass Tabs
Brocwurst Tabs
Brocwurst 1 Tabs
Carry Your Gun Tabs
Eight 1 Tabs
Eight 2 Tabs
Instead Laugh 1 Tabs
Never Ending Tabs
Paste Tabs
Sleep Through This Tabs


Song lyrics



↑ Back to top | Tablatures and chords are parodies/interpretations of the original songs. You may use it for private study, scholarship, research or language learning purposes only
© 2014 AZChords.com Contact us | Privacy policy | DMCA | Add/correct tabs | Request tabs | Top 50 tabs