» » »

Chasing The Sun Tabs (ver.1)

Artists:  A B C D E F G H I J K L M N O P Q R S T U V W X Y Z # 

Chasing The Sun Tabs (ver.1)

Onesidezero
Rating:
0/5 (0 votes)

Hard to play? Try these video lessons and learn fast.
                Tuning: Drop D
Awesome Onesidezero song off their new 2/5's summer EP....  
Still a work in the progress but this is what we 
have accomplished!!  Its missing the chorus but when 
I get it this tab will be the first to be updated!!

 
Gtr I

Intro
e|------------------------------------|
b|------------------------------------|
g|------------------------------------|
d|-0-0-0-0--5-5-5-5--3-3-3-3--7-7-7-7-|
a|-0-0-0-0--5-5-5-5--3-3-3-3--7-7-7-7-|
D|-0-0-0-0--5-5-5-5--3-3-3-3--7-7-7-7-|


e|-------------------------------------------------------|
b|-------------------------------------------------------|
g|-------------------------------------------------------|
d|-2-2-2-2--5-5-5-5--3-3-3-3--2-2-2-2-2-2-2-2-2-2-2-2----|
a|-2-2-2-2--5-5-5-5--3-3-3-3--2-2-2-2-2-2-2-2-2-2-2-2----|
D|-2-2-2-2--5-5-5-5--3-3-3-3--2-2-2-2-2-2-2-2-2-2-2-2----|


Verse
e|-----0----------0----------0-------3-----3-----|
b|-6-----6----6-----6----1-----1---1---1-----1---|
g|-7-7-----7--7-7-----7--2-2-----2-2-----2-----2-|
d|-5----------5----------0---------0-------------|
a|-----------------------------------------------|
D|-----------------------------------------------|

Pre- Chorus
e|------------------------------------------------------------------------|
b|------------------------------------------------------------------------|
g|-----------------------------5------------------------------------------|
d|-----7----3s5----8-7-----7-----7-5-7-----7-------8-7-----7---10-8-7-8---|
a|-5-5---5-------------5-5---5---------5-5---5-3-5-----5-5---5------------|
D|------------------------------------------------------------------------|
            
Hard to play? Try these video lessons and learn fast. | Correct




comments powered by Disqus
↑ Back to top | Tablatures and chords are parodies/interpretations of the original songs. You may use it for private study, scholarship, research or language learning purposes only