>
 >
Carry Your Gun

Carry Your Gun Guitar Tabs

Onesidezero - Carry Your Gun chords, tabs, tablatures, lyrics

Guitar lessons | Add/correct | Request | Top 50 tabs Artists:  A B C D E F G H I J K L M N O P Q R S T U V W X Y Z 0-9

Carry Your Gun Guitar Tabs – Onesidezero

CD, Sheet music, Poster

Do you like Carry Your Gun? Share with your friends now
Tabs
Onesidezero - 'Carry Your Gun'
Tuning - Eb

it as a request, and the band sounds pretty good. Please rate/comment.

Intro - 2 guitars, together
eb------------------------------------|
Bb------------------------------------|
Gb--4-4-----4-4-----------------------| play 2x
Db--5-5-----5-5------2-2-4~--2-2-4~---|
Ab------6~------6~---2-2-----2-2------|chords are
Eb-------------------0-0-----0-0------| rhythm guitar


*occasional pinch harmonics on accented notes
|----------------------------------||-------------------------------|
|----------------------------------||-------------------------------|
|-2-2-----2-2----------------------||-------------------------------|
|-4-4-----4-4------4-4-6~--4-4-6~--||-------5-5-5-5-2-2-2-2-5-5-5-x-|
|-----5~------5~---5-5-----5-5-----||-3---3-------------------------|
|----------------------------------||-3-----------------------------|
                                      ^ rhythm holds the chord

|-------------------------------|
|-------------------------------|
|-------------------------------|
|-------4-4-4-4-2-2-2-2-1-1-1-1-|
|-0---0-------------------------|
|-------------------------------|

Main Riff (first time at 0:16) - Again, Gutiar 2 holds the chords out
|-------------------------------|-------------------------------|
|-------------------------------|-------------------------------|
|-------5-5-5-5-4-4-4-4---------|-----0-5-5-5-5-4-4-4-4---------|
|-2---------------------5-5-5-5-|-5---------------------5-5-5-5-|
|-2-----------------------------|-5-----------------------------|
|-0---0-------------------------|-3-----------------------------|


|-------------------------------|-------------------------------|
|-------------------------------|-------------------------------|
|-------------------------------|-------------------------------|
|-------5-5-5-5-2-2-2-2-5-5-5-x-|-------4-4-4-4-2-2-2-2-1-1-1-1-|
|-3---3-------------------------|-0---0-------------------------|
|-3-----------------------------|-------------------------------|


Verse - Play the First 3 bars of intro (first is repeated)

Verse Riff Ending
|-----------------|------------------|
|-----------------|------------------|
|-----4-4-----2-2-|------------------|
|-5-5-----4-4-----|-2-2-5---55-5-4-0-|
|-----------------|------------------|
|-----------------|------------------|

Prechorus
|------0------------0-------|------0--------------------|
|------0------------0-------|------0--------------------|
|-4---------4/5-5-5---5-5\4-|-4---------4/7-7-7-7-7-7-7-|
|-4---------4/5-5-5---5-5\4-|-4---------4/7-7-7-7-7-7-7-|
|-2---------2/3-3-3---3-3\2-|-2---------2/5-5-5-5-5-5-5-|
|---------------------------|---------------------------|

|------0------------0-------|-------0--------------------|
|------0------------0-------|-------0--------------------|
|-4---------4/5-5-5---5-5\4-|-4--4-----------------------|
|-4---------4/5-5-5---5-5\4-|-4--4-------9\7---7\5---5\4-|
|-2---------2/3-3-3---3-3\2-|-2--2-------9\7---7\5---5\4-|
|---------------------------|------------7\5-0-5\3-0-3\2-|

Chorus - Play Main Riff


Verse 2 - Similar to Verse 1


Repeat Prechorus & Chorus


Solo       % = repeat the notes

|----------------------------|---------------------------------------------|
|----------------------------|---------12h15-13h15p13p12---15p13p12--------|
|----------------------------|-------12-----------------14---------12p11---|
|-14b16~--14b17--b17r16-14p12|h14~-14-----------------------------------14-|
|----------------------------|---------------------------------------------|
|----------------------------|---------------------------------------------|

|------------------------------------------|-15-----------------------------|
|------------------------------------------|----17-----%---%---%--%-%-%-%-%-|
|--------------11h12p11--11h12-12h14p12----|-------16-----------------------|
|-13~---13PH~----------14--------------13~-|-[play 4x, then speed up]-------|
|------------------------------------------|--------------------------------|
|------------------------------------------|--------------------------------|

|-17b19r---15-14h15p14--14----------------------|
|---------------------15--15--------------------|
|--------16-----------------17-16-17-17-17p16p14|
|-----------------------------------------------|
|-----------------------------------------------|
|-----------------------------------------------|

|------------------------------------------------|
|-----------------------------15-17p15-----------|
|------------14-16h17p16-16h17--------17p16p14---|
|-16~---16h17---------------------------------17-|
|------------------------------------------------|
|------------------------------------------------|

Bridge - play 2x
|-----0*--------------|-----------------------|-------------------|
|-----0*--------------|-----------------------|-------------------|
|-----0*--------------|-5--------2----5-------|-4--------2--------|
|-2-------4----5--4/5-|-5--------2----5----5--|-4--------2--5--4--|
|-2-------4----5--4/5-|-3--------0----3--0h3--|-2--------0--5--4--|
|-0-------2----3--2/3-|-----------------------|-------------3--2--|

* are notes that aren't played the first time through

Clean Bridge Lead (3:02)     play 2x
|-------------------------------------|------------------------------|
|---------------------1-----0---------|---------1-----3-----1-----1p0|
|-------0---0---0---0---0-------0---0-|-----0-------0---0-------0----|
|-(2)-2---2---4---4-------2-------2---|---2--------------------------|
|-(2)---------------------------------|-3---------3-------3---3------|
|-(0)---------------------------------|------------------------------|
() notes are rhythm guitar
                                         After repeat
|---------------------------------|      -----0------0---|
|---------0-----------------------|      -----0------0---|
|-------0---0---0-----0-----0-----|      -----0------0---|
|-----4-------------2-----2-----0-|      ----------------|
|-2-----------2---0---------------|      ----------------|
|-----------------------3-----2---|      -0------0-------|


On 2nd time of Clean Bridge, guitar w/ fuzz overdrive plays:
|---------------------|---------------|------------------|--------|
|---------------------|---------------|------------------|--------|
|---------------------|---------------|------------------|--------|
|---------------------|---------------|------------------|--------|
|-0h2~----0h2--0------|---------------|-0-----0h2--0-----|--------|
|-----------------3-0h|h3~--------2h3-|--------------3-2-|-0------|

Play Chorus again

Play Bridge again

Outro Solo
|-15-----------------------------------|
|----17-----%---%---%---%---%---%-%-%--|
|-------16-----------------------------|
|-----------repeat the three notes-----|
|---------------and speed up-----------|
|--------------------------------------|


|-17b19r---15-14h15p14--14----------------------|
|---------------------15--15--------------------|
|--------16-----------------17-16-17-17-17p16p14|
|-----------------------------------------------|
|-----------------------------------------------|
|-----------------------------------------------|

|------------------------------------------------|----------------|
|-----------------------------15-17p15-----------|----------------|
|------------14-16h17p16-16h17--------17p16p14---|-16~------------|
|-16~---16h17---------------------------------17-|-----17~--17~---|
|------------------------------------------------|----------------|
|------------------------------------------------|----------------|


key
| /  slide up
| \  slide down
| h  hammer-on
| p  pull-off
| b  bend note
| r  release bend
| PH pinch harmonic
| ~  vibrato
| x  Mute note
| %  repeat an arpeggio (note sequence)





Comments


Popular Onesidezero tabs & chords
Run Around Bass Tabs
A Point In Time 1 Tabs
Brocwurst Tabs
Holding Cell Tabs
Instead Laugh 2 Tabs
Never Ending Tabs
Paste Tabs
Summertime Tabs
Underground Tabs
Underground 1 Tabs


Song lyrics



↑ Back to top | Tablatures and chords are parodies/interpretations of the original songs. You may use it for private study, scholarship, research or language learning purposes only
© 2014 AZChords.com Contact us | Privacy policy | DMCA | Add/correct tabs | Request tabs | Top 50 tabs