>
 >
Tyrant

Tyrant Bass Tabs

Onerepublic - Tyrant chords, tabs, tablatures, lyrics

Guitar lessons | Add/correct | Request | Top 50 tabs Artists:  A B C D E F G H I J K L M N O P Q R S T U V W X Y Z 0-9

Tyrant Bass Tabs – Onerepublic

CD, Sheet music, Poster

Do you like Tyrant? Share with your friends now
Bass Tabs
-------------------------------------------------------------------------------
			     TYRANT - OneRepublic
-------------------------------------------------------------------------------


Note, people, I just realised that I had tabbed another version of the song,
so I made this quickly from this new version, and it's a bit quick made, so
expect errors and whatnot. I'll try to find any errors and fix them, but right
not, I'm just replacing the old version with the new. I have the old one if
you'd like it.

Tuning: Standard

Verse 0:44
G|-------------------------------|
D|-------------------------------|
A|-------------------------------|
E|-12--14--10~--12--10--7-757575-|2x

G|------------|
D|------------|
A|------------|
E|-12--10--7~-|


G|------------|
D|------------|
A|-------------|
E|-12--10/7-7-|

Chorus 1:05
G|--------------------------------------------------------------------------|
D|-----------------7-7-7-7-7-7-7-7-9-9-9-9-6-6-6-6-9-9-9-9-5-5-5-5-5-5-5-7-7|
A|--------------------------------------------------------------------------|
E|-7-7-7-7-7-7-7-7----------------------------------------------------------|

G|---------------------------------------------------------------------------|
D|------------------7-7-7-7-7-7-7-7-9-9-9-9-6-6-6-6-6-6-6-9-9-7-7-6-6-5-5-7-7|
A|---------------------------------------------------------------------------|
E|-7-7-7-7-7-7-7-9-9---------------------------------------------------------|

1:18
G|-------------------------------------------------------------------------|
D|-------------------------------------------------------------------------|
A|-------------------------------------------------------------------------|
E|-3-3-3-3-3-3-3-3-3-3-3-3-3-3-3-3-3-3-5-5-5-5-5-5-5-5-5-5-5-5-5-5-5-5-5-5-|

TYRANT pause

Verse 2 1:37
G|------------------------------|
D|------------------------------|
A|------------------------------|
E|-12--14--10~--12--10--7-57575-|

1:45
G|----------1616161414-------------11-9----7-9-11--|
D|-------------------------------9------12-------9-|
A|-------------------------------------------------|
E|-12--10--7~----------12--10--7~------------------|

G|--------------------------|
D|--------------------------|
A|--------------------------|
E|-12-10-7-575--12-10-7\5-7-|


Chorus 1:57
G|-------------------------------------------------------------------------|
D|-----------------7-7-7-7-7-7-7-7-9-9-9-9-6-6-6-6-9-9-7-7-6-6-7-7-9-9-5-5-|
A|-------------------------------------------------------------------------|
E|-7-7-7-7-7-7-7-7---------------------------------------------------------|

G|------------------------------------------------------------|
D|----------------7-7-7-7-9-9-7-7-6-6-6-6-6-7-7-9-9-5-5-7-7-7-|
A|------------------------------------------------------------|
E|-7-7-7-7-7-7p5h7--------------------------------------------|

2:10
G|--------------------------------------------------|
D|---------------/55555555------------/777777779977-|
A|--------------------------------------------------|
E|-3333333333333----------555555555555--------------|

G|-------------------------------------------2-2-|
D|-------------/5555555------------5557777555----|
A|-----------------------------------------------|
E|-33333333333---------3333333333----------------|

G|------------------------------------664422-|
D|------------7777777-------------7799-------|
A|-------------------------------------------|
E|-5555555555---------55555555555------------|

Bridge 2:24
G|-----------------|
D|-------9---------|
A|----7-----7--9-9-|
E|-7---------------|x4

2:37
G|--------------------------------|
D|--------------------------------|
A|----------------7-7-7-7-7-7-7-7-|
E|-7-7-7-7-7-7-7-7----------------|

G|-------------------------------------------------------|
D|-------------------------------------------------------|
A|-------------------------7--7--7--7--7---7--7-7--7--7\-|
E|-7--7--7--7--7--7--7--7--------------------------------|

Guitar pause

3:00 I'm stained with apathy
G|------------------------------------------------------------------|
D|---------------------------------------------------------6-66656--|
A|------------------------------------------------------------------|
E|-5/12\5/--7-7~-7-7~-9-10-6-6~-6-6~--5-5~-5-5--9-10-4-4~-4---------|

G|------------------------------------------------------|
D|--------------------------------7777999666666666------|
A|------------------------------------------------------|
E|-7-7~-7-7~-9-10-6-6~-656~-6-5-5~------------------4/\-|

G|------------------------------------------------------|
D|--------------------------------------------6666665h6-|
A|------------------------------------------------------|
E|-7-7~-7-7~---9-6-6~-66-67--5-5~/9-10--4-4~-4----------|

G|-------------------------------------------------------------------------|
D|-----------------------------------77777/9999999999\66666/99\6666666-----|
A|-------------------------------------------------------------------------|
E|-7-7~-7-7-9-10-6-6~-6-6~-6h7-5-5~-5--------------------------------------|

PAUSE

4:14
G|--------------------|
D|--------------------|
A|--------------------|
E|-12--14-10--12-10-7-|

G|---------------------------|
D|-----------777777----------|
A|-----------------7---------|
E|-12--14-10---------12-10-7-|

4:27
G|-------------------------------------------------------------------------|
D|-------------------------------------------------------------------------|
A|-------------------------------------------------------------------------|
E|-3-3-3-3-3-3-3-3-3-3-3-3-3-3-3-3-3-3-5-5-5-5-5-5-5-5-5-5-5-5-5-5-5-5-5-5-|


G|-------------------------------------|
D|-------5-5-5-5-5-5-5-5-5-5-5---------|
A|-------------------------------------|
E|-3-3-3-----------------------3-3-3-3-|

G|-------------------------------------|
D|-------7-7-7-7-------7-7-7-7-7-9-9-9-|
A|-------------------------------------|
E|-5-5-5---------5-5-5-----------------|


G|-------------------------------------|
D|-------5-5-5-5-------5-5-5-5-5-5-5-5-|
A|-------------------------------------|
E|-3-3-3---------3-3-3-----------------|

G|-------------------------------------|
D|-------7-7-7-7-------7-7-7-7-7-7-7-7-|
A|-------------------------------------|
E|-5-5-5---------5-5-5-----------------|


| /  slide up
| \  slide down
| h  hammer-on
| p  pull-off
| ~  vibrato
| +  harmonic
| x  Mute note
===============================================================================





Comments


Popular Onerepublic tabs & chords
All Fall Down 2 Chords
Apologize 10 Chords
Come Home Chords
Counting Stars 7 Chords
Everybody Loves Me Chords
Feel Again Chords
Passenger 1 Chords
Preacher Chords
Secrets Chords
Everybody Loves Me Ukulele


Song lyrics



↑ Back to top | Tablatures and chords are parodies/interpretations of the original songs. You may use it for private study, scholarship, research or language learning purposes only
© 2014 AZChords.com Contact us | Privacy policy | DMCA | Add/correct tabs | Request tabs | Top 50 tabs