» » »

Sleep Tabs (ver.1)

Artists:  A B C D E F G H I J K L M N O P Q R S T U V W X Y Z # 

Sleep Tabs (ver.1)

Onerepublic
Rating:
0/5 (0 votes)

Hard to play? Try these video lessons and learn fast.
                Chords:
Bmadd4:  x24430
Gm6:     3x0330
Bbmaj7:  6x0765
Am7add4: 500553
  C:     x32010
 Em:     022000
  B:     x2444x


MAIN PROGRESSION:

     Bmadd4   Gm6                    Bbmaj7   Am7add4
e|-----0-------0--0-1---0-1---0-1-------5--------3-------------|
B|-----3-------3--3-3-3-3-3-3-3-3-------6--------5-------------|
G|-----4-------3--3-3-3-3-3-3-3-3-------7--------5-------------|
D|-----4-------0--0-0-0-0-0-0-0-0-------0--------0-------------|
A|--2--2-------x------------------------x--------0-------------|
E|----------3--3-------------------6----6----5---5-------------|


ARPEGGIO:

   Bmadd4                      Gm6
e|---------0-----------0-------------0-1---0-1---0-1-----------|
B|-------3---3-------3---3---------3-----3-----3-----3---------|
G|-----4-------4---4-------4-----3-----------------------------|
D|-------------------------------------------------------------|
A|---2-----------2---------------------------------------------|
E|-----------------------------3-------------------------------|

     Bbmaj7                         Am7add4
e|-----------5-------------5----------------3---------------3---------------|
B|---------6---6---------6---6------------5---5-----------5---5-------------|
G|---------------7-----7-------7--------5-------5-------5-------5-----------|
D|-------0------------------------------------------------------------------|
A|--------------------------------------------------------------------------|
E|----6-------------6----------------5---------------5----------------------|


Bmadd4  Gm6  Bbmaj7  Am7add4 (2)

Bmadd4     Gm6             Bbmaj7   Am7add4
Talk to myself again, all alone, on my own
Bmadd4       Gm6                Bbmaj7          Am7add4
Walk by the scene again, just to see what people see
Bmadd4          Gm6               Bbmaj7         Am7add4
Caught in your stubborn hold, and I'm so far from home

Bmadd4                   Gm6
   So turn the lights on,    turn the lights on
Bbmaj7               Am7add4
   Turn the lights on   for me
Bmadd4                Gm6
so  Keep the lights on, keep the lights on
Bbmaj7             Am7add4
  Keep the lights on     for me
            Bmadd4  Gm6  Bbmaj7  Am7add4
Don't go to sleep

Bmadd4        Gm6                  Bbmaj7           Am7add4
Lost in your thoughts again, consciously you think of me
Bmadd4     Gm6                  Bbmaj7         Am7add4
Focus your perfect words with a pen you write me in
Bmadd4      Gm6                 Bbmaj7          Am7add4
I can't be reached, so far from here, I need you near   yeah


Bmadd4                   Gm6
   So turn the lights on,    turn the lights on
Bbmaj7                 Am7add4
    Turn the lights on     for me
Bmadd4                Gm6
  so Keep the lights on, keep the lights on
Bbmaj7             Am7add4
  Keep the lights on     for me yeah
            Bmadd4
Don't go to sleep

e|--------------------------------------------------------------|
B|--------------------------------------------------------------|
G|--------------------------------------------------------------| 2x
D|--------------------------------------------------------------|
A|--------------------------------------------------------------|
E|---0-0-0-0-0-0-11-11-11-11-11-11--7-7-7-7-7-7--2-2-2--3-3-3---|

C             Em  C            B
  I wait for you,   I stay for you

Bmadd4  Gm6  Bbmaj7  Am7add4

Bmadd4                   Gm6
   So turn the lights on,    turn the lights on
Bbmaj7                 Am7add4
    Turn the lights on     for me
Bmadd4              Gm6
so Keep the lights on, keep the lights on
Bbmaj7             Am7add4
  Keep the lights on     for me yeah
e|----------------------------------------------------------------------|
B|----------------------------------------------------------------------|
G|----------------------------------------------------------------------| 2x
D|----------------------------------------------------------------------|
A|----------------------------------------------------------------------|
E|-----------0-0-0-0-0-0-11-11-11-11-11-11--7-7-7-7-7-7--2-2-2--3-3-3---|

Don't go to sleep


C             Em  C             B   E|---2-2-2-3-3-3-
  I wait for you,   I stay for you
            
Hard to play? Try these video lessons and learn fast. | Correct




comments powered by Disqus
↑ Back to top | Tablatures and chords are parodies/interpretations of the original songs. You may use it for private study, scholarship, research or language learning purposes only