» » »

Secrets Tabs (ver.3)

Artists:  A B C D E F G H I J K L M N O P Q R S T U V W X Y Z # 

Secrets Tabs (ver.3)

Onerepublic
Rating:
0/5 (0 votes)

Hard to play? Try these video lessons and learn fast.
                E|------------------------------------------------------------------|
B|------------------------------------------------------------------|
G|-----2---2-----------2---2-----------2---2-----------2---2--------|
D|---4---4---4---4---4---4---4---4---4---4---4---4---4---4---4---4--|
A|-5-----------5---5-----------5---4-----------4---4-----------4----|
E|------------------------------------------------------------------|

E|------------------------------------------------------------------|
B|------------------------------------------------------------------|
G|-----4---4-----------4---4-----------4---4------------------------|
D|---4---4---4---4---4---4---4---4---------------------5---5--------|
A|-2-----------2---2-----------2-----5---5---5---5---5---5---5---5--|
E|---------------------------------3-----------3---3-----------3----|
            
Hard to play? Try these video lessons and learn fast. | Correct




comments powered by Disqus
↑ Back to top | Tablatures and chords are parodies/interpretations of the original songs. You may use it for private study, scholarship, research or language learning purposes only