» » »

Dreamin Tabs (ver.1)

Artists:  A B C D E F G H I J K L M N O P Q R S T U V W X Y Z # 

Dreamin Tabs (ver.1)

Onerepublic
Rating:
4/5 (4 votes)

Hard to play? Try these video lessons and learn fast.
                -------------------------------------------------------------------------------
-------------------------------------------------------------------------------

Tuning: standard

Chorus F:  e|-1-|   Am:  e|-0-|   Dm:  e|-1-|   C:  e|-0-|
           B|-1-|        B|-1-|        B|-3-|       B|-1-|
           G|-2-|        G|-2-|        G|-2-|       G|-0-|
           D|-3-|        D|-2-|        D|-0-|       D|-2-|


Intro
      Dm    Dm
e|-----1-----1----|        |--------|
B|-----3-----3----|        |-----3--|         altogethor...
G|-----2-----2----|        |-----2--|        first 2x - intro
D|--0-------------|  x 3   |-----0--|        second 2x - verse
A|---------1------|        |-----0--|
E|----------------|        |--3-----|


Pre-chorus
rhythm-   F                Am
         Dm                C
e|-------------------------------------------------|
B|-------------------------------------------------|
G|------------------77/99/1010/99/77---------------|
D|--------77--1010--------------------1010--77-----|
A|-------------------------------------------------|
E|-------------------------------------------------|

Chorus
Rhythm    F                Am
e|------------5-------5---|-----5-------5------|
B|----------6---6---6---6-|---5---5---5---5----|
G|--------5-------5-------|-5-------5----------|
D|------------------------|--------------------|
A|------------------------|--------------------|
E|------------------------|--------------------|

Rhythm   Dm                C                       C
e|------------1-------1---|-----0-------0-----|--|-----3-------3-----|
B|----------3---3---3---3-|---1---1---1---1---|or|---5---5---5---5---|
G|--------2-------2-------|-0-------0-------0-|--|-5-------5-------5-|
D|------------------------|-------------------|--|-------------------|
A|------------------------|-------------------|--|-------------------|
E|------------------------|-------------------|--|-------------------|

Bridge
e|-----------------------------------------------|
B|-----------------------------------------------|
G|----7------6------5-------------7------7////---|
D|----7--x8--7--x8--5--x8--7------7--x8--7////---|
A|----5------4------3------7--x8--5------5////---|
E|-------------------------5---------------------|

Outro
mixture of pre-chorus, verse, and bridge

Overview
Intro/verse
Pre-chorus
Chorus
Verse
Pre-chorus
Chorus
Bridge
Pre-chorus
Chorus
Outro
            
Hard to play? Try these video lessons and learn fast. | Correct




comments powered by Disqus
↑ Back to top | Tablatures and chords are parodies/interpretations of the original songs. You may use it for private study, scholarship, research or language learning purposes only