» » »

Onerepublic, Apologize Tabs (ver.11)

Artists:  A B C D E F G H I J K L M N O P Q R S T U V W X Y Z # 

Apologize Tabs (ver.11)

Onerepublic Tabs
Rating:
0/5 (0 votes)
Apologize lessons Tabs too difficult? Try these video lessons and learn fast
                Hello guys, This is my first tab and i tabbed out the singing part.



ONE REPUBLIC - APOLOGIZE

E-------------------------------|
B-------------------------------|
G-------------------------------|
D-10-8-10-8-8--8----8-8-8-------|  x2
A----------------10-------8-10--|
E-------------------------------|


E-----------------------------------------|
B-----------------------------------------|
G-----------------------------------------|
D-10-8-10-8-10-13--10-8-10-8-10-13-13-15--|  x2
A-----------------------------------------|
E-----------------------------------------|


E-----------------------------------------|
B-----------------------------------------|
G-------15-15----------------------15-15--|
D-13-13-------12-13-12-13--10--13---------|  x2
A-----------------------------------------|
E-----------------------------------------|


E--------------------|
B--------------------|
G--------------------|
D-15-17-17--10-12-8--| x1
A--------------------|
E--------------------|

E-------------------------------|
B-------------------------------|
G-------------------------------|
D-10-8-10-8-8--8----8-8-8-------|  x1
A----------------10-------8-10--|
E-------------------------------|

E---------------------------------------|
B---------------------------------------|
G---------------------------------------|
D-10-8-10-8-10--10---------8------------| x1
A-------------------11-13----7-9--13-15-|
E---------------------------------------|

E-----------------------------------------|
B-----------------------------------------|
G-----------------------------------------|
D-10-8-10-8-10-13--10-8-10-8-10-13-13-15--|  x1
A-----------------------------------------|
E-----------------------------------------|


E-------------------------------------------|
B-------------------------------------------|
G-------------------------------------------|
D-10-8-10-8-10-13--10-8-10-8-10-13-13-15-17-| x1
A-------------------------------------------|
E-------------------------------------------|


E-----------------------------------------|
B-----------------------------------------|
G----15-15----------------------15-15-----|
D-13-------12-13-12-13--10--13------------|  x2
A-----------------------------------------|
E-----------------------------------------|

E--------------------|
B--------------------|
G--------------------|
D-15-17-17--10-12-8--| x1
A--------------------|
E--------------------|

E-------------------------------------------|
B-------------------------------------------|
G----15-15----------------------15-15-------|
D-13-------12-13-12-13--10--13--------------| x2
A-------------------------------------------|
E-------------------------------------------|

E---------------------------------|
B---------------------------------|
G----15-15------------------------|
D-13-------12-13-12-13--15-17-15--|  x2
A---------------------------------|
E---------------------------------|

E-----------------------------------|
B-----------------------------------|
G-----------------------------------|
D-10-8-10-8-8--8----8-8-13----------|  x1
A----------------10-------8-10------|
E-----------------------------------|


Hope you guys like it, Rate what you think of it ;)
            
Submit corrections

comments powered by Disqus
↑ Back to top | Onerepublic Tabs for Apologize. Lyrics for acoustic guitar and electric guitar. Tablatures and chords are parodies/interpretations of the original songs. You may use it for private study, scholarship, research or language learning purposes only