» » »

One Piece, Hikari E Bass tabs (ver.1)

Artists:  A B C D E F G H I J K L M N O P Q R S T U V W X Y Z # 

Hikari E Bass tabs (ver.1)

One Piece Tabs
 Rating:
4.2/5 (5 votes)
Hikari E lessons Tabs too difficult? Try these video lessons and learn fast
1
                (One Piece soudtrack)

Basstab by Gustavo02


This is my version of the bassline of the song. This is not 100% like the original 
but the ideia is the same.


Intro:

G|--------------------------------|  |--------------------------------|
D|--------------------------------|  |--------------------------------|
A|1-------------------------------|  |/13-----------------------------|
E|--------------------------------|  |----------------------------13\-|

G|--------------------------------|  |--------------------------------|
D|--------------------------------|  |--------------------------------|
A|3-3-3-3----1-1-1-1----1-1-3-----|  |--------------------------------|
E|--------------------------------|  |1-1-1-1----1-1-1-1----1-1-3-----|

G|--------------------------------|  |--------------------------------|
D|--------------------------------|  |--------------------------------|
A|3-3-3-3----1-1-1-1----1-1-3-----|  |--------------------------------|
E|--------------------------------|  |1-1-1-1----1-1-1-1----1-1-3-----|

G|--------------------------------|  |--------------------------------|
D|--------------------------------|  |--------------------------------|
A|1-------------------------------|  |--------------------------------|
E|--------------------------------|  |3-------------------------------|


chorus (the rythm part doesn't matter much, the important is the notes):

G|--------------------------------|  |--------------------------------|
D|--------------------------------|  |--------------------------------|
A|3----3-3--3---------------------|  |--------------------------------|
E|----------------3----3-3--3-----|  |5----5-5--5-----0----0-0--0-----|

G|--------------------------------|  |--------------------------------|
D|--------------------------------|  |--------------------------------|
A|--------------------------------|  |3---3---3---3---1-1-1-----------|
E|1----1-1--1-----3----3-3--3-----|  |----------------------3---------|

G|--------------------------------|  |--------------------------------|
D|--------------------------------|  |--------------------------------|
A|3----3-3--3---------------------|  |--------------------------------|
E|----------------3----3-3--3-----|  |5----5-5--5-----0----0-0--0-----|
              (chorus 3 ends here)
G|--------------------------------|  |--------------------------------|
D|--------------------------------|  |--------------------------------|
A|--------------------------------|  |1---1-1-1---1---1---1-1-1--1----|
E|1----1-1--1-----3----3-3--3-----|  |--------------------------------|

G|--------------------------------|
D|--------------------------------|
A|13---13-13--13--13---13---13\---|
E|--------------------------------|


Verses 1a (slide part):

G|----------5---/7-----5----------|  |----------5---/10----9----------|
D|-----5------------------5-------|  |-----5------------------10------|
A|3-------------------------------|  |3-------------------------------|
E|--------------------------------|  |--------------------------------| x3

G|----------5---/7-----5----------|  |----------5---------------------|
D|-----5------------------5-------|  |-----5--------------------------|
A|3-------------------------------|  |3-----------------------3--2----|
E|--------------------------------|  |--------------------------------|


Verses 1b:

G|--------------------------------|  |-------------------------------|
D|--------------------------------|  |-------------------------------|
A|--------------------------------|  |-------------------------------|
E|5---3-5-5------3---3-3-3--------|  |1---0---1---0---1---0---1-3----|

G|--------------------------------|
D|--------------------------------|
A|--------------------------------|
E|5---3-5-5------0---0-0-0--------|

G|--------------------------------|  |--------------------------------|
D|--------------------------------|  |--------------------------------|
A|1---1-1-1-1-1-1-1---1-1-1-1-1-1-|  |--------------------------------|
E|--------------------------------|  |3-----------3.------------------|

-> CHORUS again


pos chorus 2:

G|--------------------------------|  |--------------------------------|
D|--------------------------------|  |7-------------------------------|
A|3-------------------------------|  |--------------------------------|
E|--------------------------------|  |----------------13\-----3--3----|


verses 2a:

G|--------------------------------|  |--------------------------------|
D|--------------------------------|  |--------------------------------|
A|3---3-3-3-3-3-3-3---3-3-3-3-3-3-|  |3---3-3-3-3-3-3-3---3-3-3-3-3-3-|
E|--------------------------------|  |--------------------------------| x3

G|--------------------------------|  |--------------------------------|
D|--------------------------------|  |--------------------------------|
A|3---3-3-3-3-3-3-3---3-3-3-3-3-3-|  |3---3-3-3-3-3-3-3-------3--2----|
E|--------------------------------|  |--------------------------------|


--> verses 2b (same as VERSES 1B)

--> CHORUS (without the last 2 |----|)

bridge A (slow part):

G|--------------------------------|  |--------------------------------|
D|--------------------------------|  |--------------------------------|
A|---------------5----------------|  |--------------------------------|
E|5-------------------------------|  |0-------------1-/13\-----3-/13\-|


bridge B (full of drums):

G|--------------------------------|  |--------------------------------|
D|--------------------------------|  |--------------------------------|
A|3---3-----/15---15-15-15-15-15--|  |1---1-----/13---13-13-13-13-13--|
E|--------------------------------|  |--------------------------------|

G|--------------------------------|  |--------------------------------|
D|--------------------------------|  |--------------------------------|
A|--------------------------------|  |--------------------------------|
E|1---1-----/13---13-13-13-13-13--|  |1---1-----------1---1-----------|


last chorus A (quiet part):

G|--------------------------------|  |--------------------------------|
D|--------------------------------|  |--------------------------------|
A|3-------------------------------|  |--------------------------------|
E|----------------3---------------|  |5---------------0---------------|

G|--------------------------------|  |--------------------------------|
D|--------------------------------|  |--------------------------------|
A|--------------------------------|  |3-------------------------------|
E|1---------------3---------------|  |----------------3-3.------------|

last chorus B (drums come back to normal):

G|--------------------------------|  |--------------------------------|
D|--------------------------------|  |--------------------------------|
A|3----3-3--3---------------------|  |--------------------------------|
E|----------------3----3-3--3-----|  |5----5-5--5-----0----0-0--0-----|

G|--------------------------------|
D|--------------------------2-3-5-|
A|----------------------2-3-------|
E|1----1-1--1-----3-3-5-----------|


G|--------------------------------|  |--------------------------------|
D|--------------------------------|  |--------------------------------|
A|3----3-3--3---------------------|  |--------------------------------|
E|----------------3----3-3--3-----|  |5----5-5--5-----0----0-0--0-----|

G|--------------------------------|  |--------------------------------|
D|--------------------------------|  |--------------------------------|
A|--------------------------------|  |3---3---3---3---1-1-1-----------|
E|1----1-1--1-----3----3-3--3-----|  |----------------------3---------|


G|--------------------------------|  |--------------------------------|
D|--------------------------------|  |--------------------------------|
A|3----3-3--3---------------------|  |--------------------------------|
E|----------------3----3-3--3-----|  |5----5-5--5-----0----0-0--0-----|

G|--------------------------------|
D|--------------------------------|
A|--------------------------------|
E|1----1-1--1-----3----3-3--3-----|


ending:

G|--------------------------------|  |--------------------------------|
D|--------------------------------|  |--------------------------------|
A|--------------------------------|  |--------------------------------|
E|4---4---4---4---6---6---6---6---|  |4---4---4---4---6---6---6---6---|

G|--------------------------------|
D|--------------------------------|
A|--------------------------------|
E|8-------------------8-----------|
            
Submit corrections

comments powered by Disqus
↑ Back to top | One Piece Bass for Hikari E. Lyrics for acoustic guitar and electric guitar. 1 Tablatures and chords are parodies/interpretations of the original songs. You may use it for private study, scholarship, research or language learning purposes only