» » »

One Night Only, This Kingdom Tabs (ver.1)

Artists:  A B C D E F G H I J K L M N O P Q R S T U V W X Y Z # 

This Kingdom Tabs (ver.1)

One Night Only Tabs
 Rating:
4/5 (4 votes)
This Kingdom lessons Tabs too difficult? Try these video lessons and learn fast
                (Perfect)
TODAY IS 27/08/2011 AND THIS IS THE FIRST TAB OF THIS SONG IN INTERNET
I HAVE LEARNED IT BY EAR IN ONLY 10 MINUTES!!!

=ONE NIGHT ONLY - THIS KINGDOM PERFECT=

INTRO

|-------3--4---------------------8~~~--|---------------|
|--4~~--------4~~--4--2--1-------9~~~--|------6-----6--|
|---------------------------3----8~~~--|----3-----3----|
|--------------------------------------|--5-----5------|
|--4~~--------4~~--------------8-------|---------------|
|--------------------------------------|---------------|

|-------3--4---------------------8~~~--|--8~~--9~~-----|
|--4~~--------4~~--4--2--1-------9~~~--|--9~~--9~~-----|
|---------------------------3----8~~~--|--8~~--8~~-----|
|--------------------------------------|--8~~--8~~-----|
|--4~~--------4~~--------------8-------|---------------|
|--------------------------------------|---------------|
                              *                          **
|----------------------------|-------------------------||-4--6-8-6--||
|------------------------4---|-------------------------||-4--6-8-6--||
|--------5-----------5-------|--------5-----------5----||-----------||
|----6-----6-----6-----6-----|----6-----6------6----6--||-----------|| (x2)
|--4---4-------4---4---------|--8---8------------------||-----------||
|----------------------------|---------------4---4-----||-----------||
**: after playing (*), don´t play this again, play the (***)

|----------------------------|
|----------------------------|
|--------5-------------------|
|----6-----6~~~--------------|
|----------------------------|
|--4---4---------------------|


VERSE 1

Hey summer...
|----------------------------------------------------------|
|----------------------------------------------------------|
|--5~~~--555-5-5---5-55-5-5--------------------------------|
|--6~~~--666-6-6---6-66-6-6---66-6-6-6-----------(x2)------|
|--4~~~--444-4-4---8-88-8-8---66-6-6-6---------------------|
|-----------------------------44-4-4-4---------------------|

CHORUS 1

Tear this old town...      This kingdom perfect...
|----------------------------------------------------------|
|------------------4------------------------4--------------|
|--------5-------5---5------------5-------5---5------------|
|----6-----6---6-------6------6-----6---6-------6----------|
|--4---4-----4--------------8---8-----8--------------------|
|----------------------------------------------------------|

Mistakes will make them...
|------------------------------------4--6-8-6--------------|
|------------------4-----------------4--6-8-6--------------|
|--------5-------5---5-----------5-------------------------|
|----6-----6---6-------6-----6-----6-----------------------|
|--------------------------4---4---------------------------|
|--4---4-----4---------------------------------------------|(Repeat chorus)


REPEATS INTRO

|----------------------------|-------------------------|-------------|
|------------------------4---|-------------------------|-------------|
|--------5-----------5-------|--------5-----------5----|----5-6-5----|
|----6-----6-----6-----6-----|----6-----6------6----6--|-------------|
|--4---4-------4---4---------|--8---8------------------|-------------|
|----------------------------|---------------4---4-----|--4----------|

VERSE 2

Hey summer...
|----------------------------------------------------------|
|----------------------------------------------------------|
|--5~~~--555-5-5---5-55-5-5--------------------------------|
|--6~~~--666-6-6---6-66-6-6---66-6-6-6-----------(x2)------|
|--4~~~--444-4-4---8-88-8-8---66-6-6-6---------------------|
|-----------------------------44-4-4-4---------------------|

CHORUS 2

Tear this old town...      This kingdom perfect...
|----------------------------------------------------------|
|------------------4------------------------4--------------|
|--------5-------5---5------------5-------5---5------------|
|----6-----6---6-------6------6-----6---6-------6----------|
|--4---4-----4--------------8---8-----8--------------------|
|----------------------------------------------------------|

Mistakes will make them...
|------------------------------------4--6-8-6--------------|
|------------------4-----------------4--6-8-6--------------|
|--------5-------5---5-----------5-------------------------|
|----6-----6---6-------6-----6-----6-----------------------|
|--------------------------4---4---------------------------|
|--4---4-----4---------------------------------------------|(Repeat chorus)


INTERLUDE

|---------------------------------------------------------------|
|---------------------------------------------------------------|
|--5--5--5--5~~~---XX--5--5--5--5~~~----------------------------|
|--6--6--6--6~~~---XX--6--6--6--6~~~---6--6--6--6~~~---6-6-6-6--| (X2)
|--4--4--4--4~~~---XX--8--8--8--8~~~---6--6--6--6~~~---6-6-6-6--|
|--------------------------------------4--4--4--4~~~---4-4-4-4--|

|--------------------------------------------------------------------------|
|--------------------------------------------------------------------------|
|--5555555555555555--5555555555555555--5555555555555555--------------------|
|--6666666666666666--6666666666666666--6666666666666666--6666666666666666--| (X2)
|--4444444444444444--4444444444444444--8888888888888888--6666666666666666--|
|--------------------------------------------------------4444444444444444--|

 (*)                                                   (Play this after (*)... then 
repeat (*) but don´t repeat this)
|-----------------------------------------------------|--------------------|
|-----------------------------------------------------|--------------------|
|--55-5-55~~~-5-xx--55-5-55~~~-5-xx-------------------|--55-5-55~~~-5-xx---|
|--66-6-66~~~-6-xx--66-6-66~~~-6-xx--66-6-66~~~-6-xx--|--66-6-66~~~-6-xx---|
|--44-4-44~~~-4-xx--88-8-88~~~-8-xx--66-6-66~~~-6-xx--|--44-4-44~~~-4-xx---|
|------------------------------------44-4-44~~~-4-xx--|--------------------|

Then continue with this

|-----------------------------------|
|-----------------------------------|
|--5-5-5-5-5-5-5-5-5-5-5-5-5-5-5-5--|
|--6-6-6-6-6-6-6-6-6-6-6-6-6-6-6-6--|
|--4-4-4-4-4-4-4-4-4-4-4-4-4-4-4-4--|
|-----------------------------------|

And then play Chorus again

CHORUS 3

Tear this old town...      This kingdom perfect...
|----------------------------------------------------------|
|------------------4------------------------4--------------|
|--------5-------5---5------------5-------5---5------------|
|----6-----6---6-------6------6-----6---6-------6----------|
|--4---4-----4--------------8---8-----8--------------------|
|----------------------------------------------------------|

Mistakes will make them...
|------------------------------------4--6-8-6--------------|
|------------------4-----------------4--6-8-6--------------|
|--------5-------5---5-----------5-------------------------|
|----6-----6---6-------6-----6-----6-----------------------|
|--------------------------4---4---------------------------|
|--4---4-----4---------------------------------------------|(Repeat chorus)


ENDING

|-------------------------------------------------------------|
|-------------------------4~~~---------------------------4~~~-|
|--55-5-55~~~---------5---------------5--------------5--------|
|--66-6-66~~~-----6-----6---------6-----6~~~-----6-----6------|
|--44-4-44~~~---4---4--------------------------4---4----------|
|-------------------------------4---4-------------------------|

|-----------|
|-----------|
|--5~~~~~~--|
|-----------|
|-----------|
|--4~~~~~~--|
            
Submit corrections

comments powered by Disqus
↑ Back to top | One Night Only Tabs for This Kingdom. Lyrics for acoustic guitar and electric guitar. Tablatures and chords are parodies/interpretations of the original songs. You may use it for private study, scholarship, research or language learning purposes only