» » »

One Night Only, Nintendo Bass tabs (ver.1)

Artists:  A B C D E F G H I J K L M N O P Q R S T U V W X Y Z # 

Nintendo Bass tabs (ver.1)

One Night Only Tabs
 Rating:
4/5 (5 votes)
Nintendo lessons Tabs too difficult? Try these video lessons and learn fast
                ----------------------------------------------------------------------------
----------------------------------------------------------------------------


Tuning: EADG

N.B. I'm not putting in the exact amount of strums, but listening to the song will help 
work it out easily.

G|--------------------------|
D|o------------------------o|
A|o------------------------o| x8
E|---12-12-12-12--9-9-9-9---|

"Come back down..."
G|-----------------|
D|o---------------o|
A|o---------------o| x4
E|---12-12----9~---|


"I've been staring out the window thinking..."
G|------------|
D|o----------o|
A|o----------o| x4
E|---7-7-9~---|

"Come back down..."  (again)
G|-----------------|
D|o---------------o|
A|o---------------o| x4
E|---12-12----9~---|

"I've been staring out the window thinking..."  (again)
G|------------|
D|o----------o|
A|o----------o| x4
E|---7-7-9~---|

"Where..."
G|-------------------|
D|o-----------------o|
A|o-----------------o| x2
E|---7---4--4--5-6---|

G|----------------------|
D|o--------------------o|
A|o--------------------o| x2
E|---7-7-7-7--4-4-4-4---|

G|--------------------------|
D|o------------------------o|
A|o------------------------o| x2
E|---12-12-12-12--9-9-9-9---|

"I've been staring out the window thinking..."
G|------------|
D|o----------o|
A|o----------o| x4
E|---7-7-9~---|

END.

| /  slide up
| \  slide down
| h  hammer-on
| p  pull-off
| ~  vibrato
| +  harmonic
| x  Mute note
============================================================================
            
Submit corrections

comments powered by Disqus
↑ Back to top | One Night Only Bass for Nintendo. Lyrics for acoustic guitar and electric guitar. Tablatures and chords are parodies/interpretations of the original songs. You may use it for private study, scholarship, research or language learning purposes only