» » »

Stuck Between A Rock And A White Face Tabs (ver.1)

Artists:  A B C D E F G H I J K L M N O P Q R S T U V W X Y Z # 

Stuck Between A Rock And A White Face Tabs (ver.1)

One Minute Silence
Rating:
0/5 (0 votes)

Hard to play? Try these video lessons and learn fast.
                One Minute Silence - Stuck between a rock and a white face

By Benjamin Wurm

Drop D

Intro
----|-7-7-7-7-7-7-7-7-7-7---|-7-7-7-7-7-7-7------|----------------------------
----|-----------------------|--------------------|----------------------------
----|-----------------------|--------------------|----------------------------
----|-----------------------|---------------xxxx-|----------------------------
----|-----------------------|---------------xxxx-|----------------------------
----|-----------------------|---------------xxxx-|----------------------------
     Gradual bend up to (8)                                                   

Verse
----|-----------------------------------------------------------------|-------
----|-----------------------------------------------------------------|-------
----|-----------------------------------------------------------------|-------
----|-----------------------------------------------------------------|-------
----|-3p2---------3p2-3p2---------3p2-3p2---------3p2-3p2---3p2---3p2-|-------
----|-3p2-0-0-0-0-3p2-3p2-0-0-0-0-3p2-3p2-0-0-0-0-3p2-3p2-0-3p2-0-3p2-|-------
      pm  . . . .         . . . .         . . . .         .     .             

Chorus		  End Lead
----|------------|---------|--------------------------------------------------
----|------------|---------|--------------------------------------------------
----|------------|-------8-|--------------------------------------------------
----|-7--5-------|-7p5-----|--------------------------------------------------
----|-5--3--5--3-|-----6---|--------------------------------------------------
----|-------5--3-|---------|--------------------------------------------------
                                                                              
After 2nd chorus
----|-------------------------------------------------------------------------
----|-------------------------------------------------------------------------
----|-------------------------------------------------------------------------
----|-------------------------------------------------------------------------
----|-0--0-0-2-0--0--3-0-0-2-0-2-0---0--0-0-2-0--0--3-0-0-3-5-----------------
----|-0--0-0-2-0--0--3-0-0-2-0-2-0---0--0-0-2-0--0--3-0-0-3-5-----------------
    pm...................................................                     

It’s easy. Try it.
But the Bass is cool too.
            
Hard to play? Try these video lessons and learn fast. | Correct




comments powered by Disqus
↑ Back to top | Tablatures and chords are parodies/interpretations of the original songs. You may use it for private study, scholarship, research or language learning purposes only