» » »

One Minute Silence, Roof Of The World Tabs (ver.1)

Artists:  A B C D E F G H I J K L M N O P Q R S T U V W X Y Z # 

Roof Of The World Tabs (ver.1)

One Minute Silence Tabs
 Rating:
4/5 (4 votes)
Roof Of The World lessons Tabs too difficult? Try these video lessons and learn fast
1
                Roof of the world<<<<<<<<<<<<<<<<<<<<<<<

Intro/verse (note: the first one starts with a /12)
e--------------------------------------------
b--------------------------------------------
g--------------------------------------------
d--------------------------------------------
a---------------------------------------------
D-/13-0-0-/12-0-0-/12-0-0-/12-0-0-/10-0-/12-0-

Chorus
e------------------------------------------------------
b------------------------------------------------------
g------------------------------------------------------
d-7/8\7--7/8\7--7/8\7-7/8\7/8-8-8--8-8-8--5-5-5--5-5-5-
a-5/6\5--5/6\5--5/6\5-5/6\5/6-6-6--6-6-6--3-3-3--3-3-3-
D------------------------------------------------------

Post-chorus1 wah effect on g string (hee hee g-string)
e-------------------------------------------------------
b------------------------------------------------------
g-----------------7-10--7-----------------7-10-7-10-7-
d-----------------------------------------------------
a-----------------------------------------------------
D-/12-0-0-/12-0-0---------/12-0-0-/12-0-0-------------

Post-chorus2
e----------------------------
b----------------------------
g----------------------------
d----------------------------
a-3-0-xx-3-0--3-x------------
D-3-0-xx-3-0--3-x-3^(5)(3)---

Harmonic section (clean)
e------<12>-------------------<12>--------22-------
b-----------13---------------------13--------------
g--------------------------------------------------
d--------------------------------------------------
a--------------------------------------------------
d-<12>-------------------<12>-----------------------

Harmonic section variation
e------<12>--------------<12>--------------------
b----------13----------------13------------------
g------------------------------12-12-8-8-7-7-----
d------------------------------------------------
a------------------------------------------------
D-<12>-----------------<12>----------------------
pm                              .............


End riff
e------------------
b------------------
g------------------
d---7--------------
a-0-5-0-7-8-7------
D-0---0-7-8-7------

End riff variation
e-----------------------
b-----------------------
g-----------------------
d---7-------------------
a-0-5-0-7-8--888-77-33--
D-0---0-7-8--888-77-33--
pm           .........

End song with...
e-----------------------
b-----------------------
g-----------------------
d---7-------------------
a-0-5-0-7-8--7--5--3--0-
D-0---0-7-8--7--5--3--0-

Im 100% positive that this tab is correct!!!!!
Enjoy!!!
That&#8217;s the sound.
            
Submit corrections

comments powered by Disqus
↑ Back to top | One Minute Silence Tabs for Roof Of The World. Lyrics for acoustic guitar and electric guitar. 1 Tablatures and chords are parodies/interpretations of the original songs. You may use it for private study, scholarship, research or language learning purposes only