>
 >
Revolution 1

Revolution 1 Guitar Tabs

One Minute Silence - Revolution 1 chords, tabs, tablatures, lyrics

Guitar lessons | Add/correct | Request | Top 50 tabs Artists:  A B C D E F G H I J K L M N O P Q R S T U V W X Y Z 0-9

Revolution 1 Guitar Tabs – One Minute Silence

CD, Sheet music, Poster

Do you like Revolution 1? Share with your friends now
TabsTabs v2
Tuning: Drop D
                                                                
Intro/Verse: 3x
	                                            2x     2nd time 	
e |88--10-10-10-10-10--10-888--88--10-10-10-10-10-10--88--|-13-13-13-13||
B |88--10-10-10-10-10--10-888--88--10-10-10-10-10-10--88--|-13-13-13-13||  
G |*-----------------------------------------------------*|------------||
D |-------------------------------------------------------|------------||
A |*-----------------------------------------------------*|------------||
D |-------------------------------------------------------|------------||

Chorus: 2x				                                                   
e --------------------|------------------|
B --------------------|------------------|
G *----7777------7777-|-----7777-5555555-|
D -----7777------7777-|-----7777-5555555-|
A *----5555------5555-|-----5555-3333333-|
D 0000------000-------|0000--------------|
  ....      ...        ....                   

e --------------------|-----------------------||
B --------------------|-----------------------||
G -----7777------7777-|----------------------*||
D -----7777------7777-|-----------------------||
D -----7777------7777-|-----------------------||
A -----5555------5555-|-888-5555-10101010-777*||
D 0000------000-------|-888-5555-10101010-777-||
  ....      ... 

Intro/Verse: 3x 

Chorus: 2x

Interlude: 6x 											
e ------------------------------------------|
B --15-15-15-15--15-15-15br-15-15-15br-15~--|
G *-14-14-14-14--14-14-14br-14-14-14br-14~--|
D ------------------------------------------|
A *-----------------------------------------|
D ------------------------------------------|

e -----------------------------------------------------||
B 13-13-13-13-13-13-13-13~\-\-10-10-10-10-10-10-10~~---||
G 12-12-12-12-12-12-12-12~\-\-9--9--9--9--9--9--9~----*||
D -----------------------------------------------------||
A ----------------------------------------------------*||
D -----------------------------------------------------||


Bridge:8x

  Guitar 1                          
e ----------------------------------||
B ----------------------------------||
G *-----777----77-----7\\5-5-------*||
D ------777----77-----7\\5-5--------||
A *-----555----55-----5\\3-3-------*||
D --00------00-------0--------------||
    ..      ..       .        
  Guitar 2
e ------101010----1010----10\\8-----||
B ------101010----1010----10\\8-----||
G *-----9-9-9-----9-9-----9-\\7----*||
D ----------------------------------||
A *--------------------------------*||
D --00--------00-------0------------||
    ..        ..       .    

Chorus: 2x

End on:
e --||
B --||
G --||
D 0-||
A 0-||
D 0-||

This is an excellent track from One Minute Silence!!! Enjoy
Any corrections are welcome





Comments


Popular One Minute Silence tabs & chords
Brainspiller 2 Bass Tabs
Rise N Shine Bass Tabs
South Central 1 Bass Tabs
Rise And Shine Chords
210 Dog Years Tabs
Fish Out Of Water Tabs
Holy Man 1 Tabs
I Wear My Skin 1 Tabs
Just A Ride Tabs
Rise And Shine 2 Tabs


Song lyrics



↑ Back to top | Tablatures and chords are parodies/interpretations of the original songs. You may use it for private study, scholarship, research or language learning purposes only
© 2014 AZChords.com Contact us | Privacy policy | DMCA | Add/correct tabs | Request tabs | Top 50 tabs