» » »

One Minute Silence, I Wear My Skin Tabs (ver.1)

Artists:  A B C D E F G H I J K L M N O P Q R S T U V W X Y Z # 

I Wear My Skin Tabs (ver.1)

One Minute Silence Tabs
 Rating:
4/5 (6 votes)
I Wear My Skin lessons Tabs too difficult? Try these video lessons and learn fast
1
                i decided to make this seeing that there are no good tabs for this band
since there little known, but my uncles the guitarist and he taught me a few
 of these so i can get u guys  some good tabs for oms, and THEY DONT PLAY IN
 DROP D lol its d standard, every oms tab says there in d XD


Intro do this twice

[---------------------------------]
[---------------------------------]
[---------------------------------]
[---------------------------------]
[-7-77777-77777-778-888-885-555-55]
[-0-00000-00000-000-000-000-000-00]

[---------------------------------]
[---------------------------------]
[-----------------1010101010101010]
[-----------------x-xxx-xxx-xxx-xx]
[-7-77777-77777-778-888-888-888-88]
[-0-00000-00000-000-000-000-000-00]

chorus
 dont slide into the 1st cord 1st time the rif is played
[--------------------------------]
[--------------------------------]
[--------------------------------]
[--------9s10--------9s10--------]
[3s5-----7s8---5-----7s8---5-----]
[1s3p0-0-7s8-0-3p0-0-7s8-0-3p0-0-]x3
 pm    .     .     .     .     .


4th time around do this

[-----------------------]
[-----------------------]
[-----------------------]
[--------9s10-----------]
[3s5-----7s8---8-8-8-777]
[1s3p0-0-7s8-0-6-6-6s555]


verse
x2
[-----------------------------------------------------]
[-----------------------------------------------------]
[--9-999-999-99--10--777-77--999-999-99-10--10--10--10]
[--x-xxx-xxx-xx--xxx-xxx-xx--xxx-xxx-xx-xxx-xxx-xxx-xx]
[0s7-777-777-77-s888-555-55-s777-777-77-888-888-888-88]
[-----------------------------------------------------]

sorry about the 10 part but the tens wudnt fit :p
                 x
                 8

chorus again
intro riff

bridge
just keep strumming these
[-------------------------]
[-12---13---12--18--17-18-]
[-------------------------]
[-9----10---9---15--14-15-]
[-------------------------]
[-------------------------]

ill update the next part after i talk to him again cuz i he never taught me the crazy 
part XD
 but u do the corus once more after it and then u do it once more with leavin ot the 
one,
enjoy lol
            
Submit corrections

comments powered by Disqus
↑ Back to top | One Minute Silence Tabs for I Wear My Skin. Lyrics for acoustic guitar and electric guitar. 1 Tablatures and chords are parodies/interpretations of the original songs. You may use it for private study, scholarship, research or language learning purposes only