» » »

It S Just A Ride Bass tabs (ver.1)

Artists:  A B C D E F G H I J K L M N O P Q R S T U V W X Y Z # 

It S Just A Ride Bass tabs (ver.1)

One Minute Silence
Rating:
0/5 (0 votes)

Hard to play? Try these video lessons and learn fast.
                Guitar effect intro 

Verse

G:----------------------------]
D:----------------------------]
A:----------------------------]                         x16 
E:--11---1---1---1---3(h)-----]

Chorus 

G:--------------------------------------------------]
D:--------------------------------------------------]
A:--------------------------------------------------]	x2
E:--6666---33---6666---33------6666---33---66---55--]

Centrepiece

G:-----------------------------]
D:-----------------------------]
A:-----------------------------]    x2			 
E:--6666---33---6666---33****--]

Interlude

G:------------------------------------]
D:------------------------------------]
A:------------------------------------]        x16			       E:--44---33-2-1----0---4---3-2-1------]

Centrepiece

G:--------------------------------------------------]
D:--------------------------------------------------]
A:--------------------------------------------------]	x2
E:--6666---33---6666---33****--6666---33---66---55--]

Outro

G:-------------------------]
D:-------------------------]
A:-------------------------]       x20				      E:--11---1---1---1---3(h)--]

Outro Part 2

G:-----------------------]
D:-----------------------]
A:-----------------------]	x1			       E:--3333333333333333-----]

Outro Part 3

G:---------]
D:---------]
A:---------]		      x1				      E:--3---1--]




Verse
Chorus
Verse 
Chorus
Centrepiece
Interlude
Chorus
Centrepiece
Outro
Outro Part 2
Outro Part 3

I enjoyed tabbing this song hope it gets a good rating
Enjoy One Minute Silence There the best f**cking best!
Ha ha ha ha ha ha hah bah!
            
Hard to play? Try these video lessons and learn fast. | Correct




comments powered by Disqus
↑ Back to top | Tablatures and chords are parodies/interpretations of the original songs. You may use it for private study, scholarship, research or language learning purposes only