» » »

One Minute Silence, Food For Your Brain Bass tabs (ver.1)

Artists:  A B C D E F G H I J K L M N O P Q R S T U V W X Y Z # 

Food For Your Brain Bass tabs (ver.1)

One Minute Silence Tabs
Rating:
0/5 (0 votes)
Food For Your Brain lessons Tabs too difficult? Try these video lessons and learn fast
                Instrument: Bass
Band One Minute Silence
Song Food For Your Brain

Drop D
G:-------]
D:-------]
A:-------]
D:--13b--]

Intro2

G:--------------------------------------------------------------------------]
D:--------------------------------------------------------------------------]
A:--------------------------------------------------------------------------]
D:--2-------22--------2-------(22)--------2---------22---------2-----------2]

Verse

G:---------------------]
D:---------------------]
A:---------------------]
D:--2-2---3--2---5--2--]

Verse

G:---------------------]
D:---------------------]
A:---------------------]
D:--3-3---4--3---6--3--]

Interlude

G:-----------------------------------------------]
D:-----------------------------------------------]
A:-----------------------------------------------]
D:--2-2----2-2----2-2---2-2--2-2--2-2--2-2--2-2--]

Outreo

G:--------------------------------]
D:--------------------------------]
A:---------------------------6-5--]
D:--2-2--22---12/2---2-2--22------]

One Minute Silence are cool I'm in a band called Silenced Inside praise me
We play Killswitch Engage!!!!!!!!!1
            
Submit corrections

comments powered by Disqus
↑ Back to top | One Minute Silence Bass for Food For Your Brain. Lyrics for acoustic guitar and electric guitar. Tablatures and chords are parodies/interpretations of the original songs. You may use it for private study, scholarship, research or language learning purposes only