» » »

Fistful Of Nothing Bass tabs (ver.3)

Artists:  A B C D E F G H I J K L M N O P Q R S T U V W X Y Z # 

Fistful Of Nothing Bass tabs (ver.3)

One Minute Silence
Rating:
0/5 (0 votes)

Hard to play? Try these video lessons and learn fast.
                Here is the first killer song off of the late one minute silence’s third album one lie fits all. One minute silence are now split up, but that is no reason to forget one of the best British bands ever.. R.I.P

Main1 :
G :----------------------------------------------------------------------------|
D :----------7--------8--------7-----------------------------------------------|
A :-7-7-7-7---7-7-7---7-7-7---7>10-10------------------------------------------|
E :----------------------------------------------------------------------------|

Main2 :
G :----------------------------------------------------------------------------|
D :----------------------7-----------------------------------------------------|
A :-7-7-7-7--8--7-7-7---7-7-7--8-8>5-5-----------------------------------------|
E :----------------------------------------------------------------------------|

Chorus :
G :----------------------------------------------------------------------------| X3
D :----------------------------------------------------------------------------|
A :----------------------------------------------------------------------------|
E :-0-0-0--7-7-7--8-8-8--10-10-10----0-0-0--7-7-7--3-3-3>-8-8-8----------------|

G :----------------------------------------------------------------------------|
D :----------------------------------------------------------------------------|
A :----------------------------------------------------------------------------|
E :- 0-0-0--7-7-7--8-8-8--10-10-10--12-12-12--7-7-7--15-15-15--10-10-10--------|

Are We Closer… ?
G :----------------------------------------------------------------------------|
D :----------------------------------------------------------------------------|
A :----------------------------------------------------------------------------|
E :- 0-0-0--7-7-7--8-8-8--10-10-10---------------------------------------------|
            
Hard to play? Try these video lessons and learn fast. | Correct




comments powered by Disqus
↑ Back to top | Tablatures and chords are parodies/interpretations of the original songs. You may use it for private study, scholarship, research or language learning purposes only