» » »

One Minute Silence, Fistful Of Nothing Bass tabs (ver.2)

Artists:  A B C D E F G H I J K L M N O P Q R S T U V W X Y Z # 

Fistful Of Nothing Bass tabs (ver.2)

One Minute Silence Tabs
Rating:
0/5 (0 votes)
Fistful Of Nothing lessons Tabs too difficult? Try these video lessons and learn fast
                Tuning: E,A,D,G

No Bass In Intro Of Song until 0:17


Verse
G|-------------------------------------|
D|-1/7-0-8-0-9-0-8-0-7/4-0-5-0-6-0-5-0-|
A|-------------------------------------|
E|-------------------------------------|

Verse-2 X4
G|-------------------------------------|
D|-4/7-0-8-0-9-0-8-0-7/4-0-5-0-6-0-5-0-|
A|-------------------------------------|
E|-------------------------------------|

Verse-3 
G|---------------------------------|
D|-4/7-0-8-0-9-0-8-0-7/4-0-5-0-6/1-|
A|---------------------------------|
E|---------------------------------|

Chorus
G|-----------------------------------------------------------------|
D|-----------------------------------------------------------------|
A|-----------------5-5-5-5-7-7-7-7---------5-5-5-5-0-0-0-0-3-3-3-3-|
E|-3-3-3-3-4-4-4-4-----------------3-3-3-3-------------------------|

Chorus-2
G|-----------------------------------------------------------------|
D|-----------------------------------------------------------------|
A|-----------------5-5-5-5-7-7-7-7---------5-5-5-5-----------------|
E|-3-3-3-3-4-4-4-4-----------------3-3-3-3---------3-3-3-3-0-0-0-0-|

Chorus-3 (Same as Part 1)
G|-----------------------------------------------------------------|
D|-----------------------------------------------------------------|
A|-----------------5-5-5-5-7-7-7-7---------5-5-5-5-0-0-0-0-3-3-3-3-|
E|-3-3-3-3-4-4-4-4-----------------3-3-3-3-------------------------|

Chorus-4
G|-----------------------------------------------------------------|
D|-----------------------------------------------------------------|
A|-----------------5-5-5-5-7-7-7-7-7-7-7-7-0-0-0-0-9-9-9-9-8-8-8-8-|
E|-3-3-3-3-4-4-4-4-------------------------------------------------|

Verse
G|-------------------------------------|
D|-1/7-0-8-0-9-0-8-0-7/4-0-5-0-6-0-5-0-|
A|-------------------------------------|
E|-------------------------------------|

Verse-2 X4
G|-------------------------------------|
D|-4/7-0-8-0-9-0-8-0-7/4-0-5-0-6-0-5-0-|
A|-------------------------------------|
E|-------------------------------------|

Verse-3 
G|---------------------------------|
D|-4/7-0-8-0-9-0-8-0-7/4-0-5-0-6/1-|
A|---------------------------------|
E|---------------------------------|

Chorus
G|-----------------------------------------------------------------|
D|-----------------------------------------------------------------|
A|-----------------5-5-5-5-7-7-7-7---------5-5-5-5-0-0-0-0-3-3-3-3-|
E|-3-3-3-3-4-4-4-4-----------------3-3-3-3-------------------------|

Chorus-2
G|-----------------------------------------------------------------|
D|-----------------------------------------------------------------|
A|-----------------5-5-5-5-7-7-7-7---------5-5-5-5-----------------|
E|-3-3-3-3-4-4-4-4-----------------3-3-3-3---------3-3-3-3-0-0-0-0-|

Chorus-3 (Same as Part 1)
G|-----------------------------------------------------------------|
D|-----------------------------------------------------------------|
A|-----------------5-5-5-5-7-7-7-7---------5-5-5-5-0-0-0-0-3-3-3-3-|
E|-3-3-3-3-4-4-4-4-----------------3-3-3-3-------------------------|

Chorus-4
G|-----------------------------------------------------------------|
D|-----------------------------------------------------------------|
A|-----------------5-5-5-5-7-7-7-7-7-7-7-7-0-0-0-0-9-9-9-9-8-8-8-8-|
E|-3-3-3-3-4-4-4-4-------------------------------------------------|

Verse
G|-------------------------------------|
D|-1/7-0-8-0-9-0-8-0-7/4-0-5-0-6-0-5-0-|
A|-------------------------------------|
E|-------------------------------------|

Verse-2 X3
G|-------------------------------------|
D|-4/7-0-8-0-9-0-8-0-7/4-0-5-0-6-0-5-0-|
A|-------------------------------------|
E|-------------------------------------|

(Listen exactly to when he fret slides)
Bridge
G|---------|
D|-7-0-8/1-|
A|---------|
E|---------|

Chorus
G|-----------------------------------------------------------------|
D|-----------------------------------------------------------------|
A|-----------------5-5-5-5-7-7-7-7---------5-5-5-5-0-0-0-0-3-3-3-3-|
E|-3-3-3-3-4-4-4-4-----------------3-3-3-3-------------------------|

Chorus-2
G|-----------------------------------------------------------------|
D|-----------------------------------------------------------------|
A|-----------------5-5-5-5-7-7-7-7---------5-5-5-5-----------------|
E|-3-3-3-3-4-4-4-4-----------------3-3-3-3---------3-3-3-3-0-0-0-0-|

Chorus-3 (Same as Part 1)
G|-----------------------------------------------------------------|
D|-----------------------------------------------------------------|
A|-----------------5-5-5-5-7-7-7-7---------5-5-5-5-0-0-0-0-3-3-3-3-|
E|-3-3-3-3-4-4-4-4-----------------3-3-3-3-------------------------|

Chorus-4
G|-----------------------------------------------------------------|
D|-----------------------------------------------------------------|
A|-----------------5-5-5-5-7-7-7-7-7-7-7-7-0-0-0-0-9-9-9-9-8-8-8-8-|
E|-3-3-3-3-4-4-4-4-------------------------------------------------|

Outro X7
G|-----------|
D|-----------|
A|-0-3-0-4-0-|
E|-----------|

Outro-2
G|---------|
D|---------|
A|-0-3-0-4-|
E|---------|
            
Submit corrections

comments powered by Disqus
↑ Back to top | One Minute Silence Bass for Fistful Of Nothing. Lyrics for acoustic guitar and electric guitar. Tablatures and chords are parodies/interpretations of the original songs. You may use it for private study, scholarship, research or language learning purposes only