» » »

One Minute Silence, Fistful Of Nothing Bass tabs (ver.1)

Artists:  A B C D E F G H I J K L M N O P Q R S T U V W X Y Z # 

Fistful Of Nothing Bass tabs (ver.1)

One Minute Silence Tabs
 Rating:
4/5 (4 votes)
Fistful Of Nothing lessons Tabs too difficult? Try these video lessons and learn fast
                Instrument: Bass

Tuning: D,A,D,G

Intro		No bass in the intro but you can put it in if you want

G:----------]
D:----------]
A:----------]
D:--222222--]

Verse

G:-------------------------------------------]
D:-------------------------------------------]
A:------12---13---12---------8-7---12---7-8--]
D:--0-0---0----0-----0---0-0----0-----0------]

Chorus

G:-------------------------]
D:-------------------------]
A:---------2222-3333-5555--]
D:--2222-------------------]

G:--------------------------]
D:--------------------------]
A:--------2222--------3333--]
D:--2222-------5555---------]

G:-----------------------]
D:-----------------------]
A:--7777-5555------5555--]
D:---------------5555----]

Interlude

G:-----------------------------------]
D:-----------------------------------]
A:------12---13---12--------------]
D:--0-0---0----0-----0-0---12/1--]

Outro

G:---------------------------------------------]
D:---------------------------------------------]
A:---------2222------3333------5555------1111--]
D:--2222--------222-------222--------222-------]

G:-----------------------------------]
D:-----------------------------------]
A:---------2222--------3333------55--]
D:--2222--------222---------222------]

That should be right it better
The new album is brill
            
Submit corrections

comments powered by Disqus
↑ Back to top | One Minute Silence Bass for Fistful Of Nothing. Lyrics for acoustic guitar and electric guitar. Tablatures and chords are parodies/interpretations of the original songs. You may use it for private study, scholarship, research or language learning purposes only