» » »

One Minute Silence, Fish Out Of Water Tabs (ver.2)

Artists:  A B C D E F G H I J K L M N O P Q R S T U V W X Y Z # 

Fish Out Of Water Tabs (ver.2)

One Minute Silence Tabs
Rating:
0/5 (0 votes)
Hard to play? Try these video lessons and learn fast.
                Drop D tunin'


Here's the song pattern:	INTRO A B A B A C A B A B A C C D B A (THAT'S GOTTA HURT)


*INTRO*
			4 TIMES
E:------------------------------------------------------------|
B:------------------------------------------------------------|
G:------------------------------------------------------------|
D:------------------------------------------------------------|
A:------------8---------------------8-------------------------|
D:--8--10h11-----7-11-----8--10h11------7--11--6--10----------|


*A*

E:--------------------------------------------------------------------|
B:--------------------------------------------------------------------|
G:--------------------------------------------------------------------|
D:-----7/8--8--8--8-----2--2--2--2/3--3--3--3--6--6--6--7/8--8--8--8--|
A:-----7/8--8--8--8-----2--2--2--2/3--3--3--3--6--6--6--7/8--8--8--8--|
D:-----7/8--8--8--8-----2--2--2--2/3--3--3--3--6--6--6--7/8--8--8--8--|

your bringing me down


E:-------------------------------------|
B:-------------------------------------|
G:-------------------------------------|
D:--2--2--2--2/3--3--3--3--1--1--1-----|
A:--2--2--2--2/3--3--3--3--1--1--1-----|
D:--2--2--2--2/3--3--3--3--1--1--1-----|



*B*

		PLAY 3 TIMES
E:--------------------------------------------|
B:--------------------------------------------|
G:----6-6-6--5-5-5--6-6-6--5-5-5--6-5---------|
D:-------------------------------------8-6----|
A:--------------------------------------------|
D:--------------------------------------------|




E:---------------------------------------------|
B:---------------------------------------------|
G:---6-6--5-5--6-6--5-5--6-6--5-5--6-5---------|
D:--------------------------------------8-6----|
A:---------------------------------------------|
D:---------------------------------------------|


*C*

	4 TIMES
E:----------------------|
B:----------------------|
G:---3------------------|
D:---3----4--1--3-------|
A:---1----4--1--3-------|
D:--------4--1--3-------|

tell me that again and you're gone...


*D*

	4 TIMES
E:------------------------|
B:------------------------|
G:---3-3-3----------------|
D:---3-3-3--4-4-4---------|
A:---1-1-1--4-4-4---------|
D:----------4-4-4---------|


		7 TIMES
E:----------------------------------|
B:----------------------------------|
G:---3-3-3--------------------------|
D:---3-3-3--4-4-4------6-6--3-3-3---|
A:---1-1-1--4-4-4------6-6--3-3-3---|
D:----------4-4-4------6-6--3-3-3---|


E:------------------------------|
B:------------------------------|
G:------------------------------|
D:-------3----3--1--------------|
A:---1-1---1-------4-3----------|
D:------------------------------|
            

comments powered by Disqus
↑ Back to top | One Minute Silence Tabs for Fish Out Of Water. Lyrics for acoustic guitar and electric guitar. Tablatures and chords are parodies/interpretations of the original songs. You may use it for private study, scholarship, research or language learning purposes only