» » »

Brainspiller Tabs (ver.1)

Artists:  A B C D E F G H I J K L M N O P Q R S T U V W X Y Z # 

Brainspiller Tabs (ver.1)

One Minute Silence
Rating:
0/5 (0 votes)

Hard to play? Try these video lessons and learn fast.
                This is a Great Song (But they NEVER play it Live?!) 

The Intro: Slow strum (Heavy palm mute)
E--x---x---x------------------------------------------------------
B--x---x---x------------------------------------------------------
G--x---x---x------------------------------------------------------
D--x---x---x------------------------------------------------------
A--x---x---x------------------------------------------------------
D--x---x---x------------------------------------------------------

The Chorus: (4th time just stop when he says BRAINSPILLER!!!!!)
And The second and third end just play the High D
D-0-3-5--0-3-5--3-5/6\5------------------------------------------
A-0-3-5--0-3-5--3-5/6\5------------------------------------------
D-0-3-5--0-3-5--3-5/6\5------------------------------------------

The Verse:
D-0--0-1-0--0-1-0-1-0-3--=0--0-1-0--5-5-5-3-2-5----------------
A-0--0-1-0--0-1-0-1-0-3---0--0-1-0--5-5-5-3-2-5----------------
D-0--0-1-0--0-1-0-1-0-3---0--0-1-0--5-5-5-3-2-5---------------- 

The Interlude: (The first time Don't play the first three notes)
(LISTEN FOR TIMING ON THIS PART)
(this may not be too accurate, but I think its better then the one by Jay)
D----0-0-0--/10-0-0-/10-0-3-5-6-5---------------------------------
A----0-0-0--/10-0-0-/10-0-3-5-6-5----------------------------------
D----0-0-0--/10-0-0-/10-0-3-5-6-5---------------------------------
Pm:  . . .

The Solo?: 

D-----------------------------------------------------10--------------
A-----13----12----11----10----7x----------13----12----------10-----1x-
D--10----10----10----10----------------10----10----10----10----------- `
            
Hard to play? Try these video lessons and learn fast. | Correct




comments powered by Disqus
↑ Back to top | Tablatures and chords are parodies/interpretations of the original songs. You may use it for private study, scholarship, research or language learning purposes only