>
 >
A Spoonful Of Sugar

A Spoonful Of Sugar Bass Tabs

One Minute Silence - A Spoonful Of Sugar chords, tabs, tablatures, lyrics

Guitar lessons | Add/correct | Request | Top 50 tabs Artists:  A B C D E F G H I J K L M N O P Q R S T U V W X Y Z 0-9

A Spoonful Of Sugar Bass Tabs – One Minute Silence

CD, Sheet music, Poster

Do you like A Spoonful Of Sugar? Share with your friends now
Bass Tabs
*Listen to the song for timing

 
Intro  /  Outro(a little before the end you will know when to play it)
  s s s  s s s  s s s  s s 
|--------------------------------------|
|-0h2-2--0h2-2--0h2-2--0h2-------------|
|--------------------------------------|
|---------------------------0-0-0-0----|


Pre-verse

|----------------------------------------------------------------|
|----------------------------------------------------------------|
|----------------------------------------------------------------|
|-3h5-0-0--5p3-0-3-0-3--5-3--3h5-0-0--5p3-0-3-0-3--5-3--3h5-0-0--|


|-------------------------------------------------------|
|-------------------------------------------------------|
|-------------------------------------------------------|
|-5p3-0-3-0-3--5-3--3h5-0-0--5p3-0-3-0-3---5-3-----0~---|


Verse

|----------------------------------------------------------|
|----------------------------------------------------------|
|----------------------------------------------------------|
|-3p0~---3p0~---3p0~---3p0~--3S7---0~---3p0~---3p0~---3p0~-|


|------------------------------------------------------|
|------------------------------------------------------|
|-3h5-5-5--3h5-5-5-------------------------------------|
|--------------------0~----3p0~---3p0~---3p0~---7s3-0~-|


Chorus

|-----------------------------------------------------------|
|-----------------------------------------------------------|
|-----------------------------------------------------------|
|-2--7S3--7S3-0---3h5-5-5-5-0--3h5-5-5-5-0--2--7S3--7S3-0---|


|--------------------------------------------------------------|
|--------------------------------------------------------------|
|--------------------------------------------------------------|
|-3h5-5-5-5-0--3h5-5-5-5-0--7S--7S3--0--3h-5-5-5-0-0-0-0-0-----|


Tablature Legend
----------------
 h   - hammer-on
 p   - pull-off
 S(capital)   - slide
 s(lowercase) - SLAP!


This is a really good OMS song like all of the others. I'm not sure about the slide from 3 to 7 in
the chorus but u can hear it and figure it out for yourself. The pre-verse might not seem right at
first but if you listen close you can hear something like this. Well, I think this is mostly right
but if nothin else use this to get started on figuring it out. Thanx...





Comments


Popular One Minute Silence tabs & chords
Fistful Of Nothing 2 Bass Tabs
Remain Calm Bass Tabs
Remain Calm 1 Bass Tabs
South Central Bass Tabs
16 Stone Pig 1 Tabs
184 Tabs
1845 Tabs
Buy Now Saved Later Tabs
Fish Out Of Water 1 Tabs
Holy Man Tabs


Song lyrics



↑ Back to top | Tablatures and chords are parodies/interpretations of the original songs. You may use it for private study, scholarship, research or language learning purposes only
© 2014 AZChords.com Contact us | Privacy policy | DMCA | Add/correct tabs | Request tabs | Top 50 tabs