» » »

A Day In The Light Of Bass tabs (ver.1)

Artists:  A B C D E F G H I J K L M N O P Q R S T U V W X Y Z # 

A Day In The Light Of Bass tabs (ver.1)

One Minute Silence
Rating:
5/5 (1 vote)

Hard to play? Try these video lessons and learn fast.
                ONE MINUTE SILENCE --- A Day In The Light Of

Tuning: Dropped D


G|--------0-0--------------0-0--------------0-0--------------0-0-5h7-|
D|-0--7-0----/8-7---0--7-0-----5h7---0--7-0----/8-7---0--7-0---------|
A|-------------------------------------------------------------------|
D|-0----0-5-5-------0----0-5-5-------0----0-5-5-------0----0-5-5-----|
                                                                  (x2)


G|-----------0-0-----------------0-0-----|
D|-0000--7-0----/8-7---0000--7-0-----5h7-|
A|---------------------------------------|
D|-0000----0-5-5-------0000----0-5-5-----|


G|-----------0-0-----------------0-0-5h7-|
D|-0000--7-0----/8-7---0000--7-0---------|
A|---------------------------------------|
D|-0000----0-5-5-------0000----0-5-5-----|


G|-----------------------------------|
D|-----------------------------------|
A|-/55555555555555\-/55555555555555\-|
D|-----------------------------------|


G|--------------------------------------------|
D|----------------------------1212121212121212|  <--- Twelfth Fret
A|-/55555555555555\-/55555555/----------------|
D|--------------------------------------------|


G|----------------------------|---------------------|
D|----------------------------|---------------------|
A|------5h3---3-------5h3---5-|------5h3---3~~~-----|
D|-0000-----5----0000-----5---|-0000-----5-------5\-|
                           (x3)


G|-------------------------------|-------------------------------|
D|-------------------------------|-------------------------------|
A|-------------------------------|-------------------------------|
D|-1h0--0h4h3h0h4h3h0h4h3h0--666-|-1h0--0h4h3h0h4h3h0h4h3h0--111-|
                              (x3)


G|-------------------------------|-------------------------------|
D|-------------------------------|-------------------------------|
A|-------------------------------|-------------------------------|
D|-1h0--0h4h3h0h4h3h0h4h3h0--666-|-1h0--0h4h3h0h4h3h0h4h3h0--111-|
                              (x3)


*Now repeat the song from the start till the above point     ^^^
and end with -
                                 |-------------------------------|
                                 |-------------------------------|
                                 |-------------------------------|
                                 |-1h0--0h4h3h0h4h3h0h4h3h0--1-1-|

Then continue as follows...

G|------7---5-----------10-----|------7---5-----7-----10-|
D|---/7---7---7-8-7-/10----10--|---/7---7---7-8---/10----|
A|-----------------------------|-------------------------|
D|-0---------------------------|-0-----------------------|
                            (x3)


G|------7---5-----------10-----|------7---5-------10-----7-|
D|---/7---7---7-8-7-/10----10--|---/7---7---7-8-7----10----|
A|-----------------------------|---------------------------|
D|-0---------------------------|-0-----------------------0-|
                            (x2)


G|----7---5-----7-----10-|------7---5-----7-----10-|
D|-/7---7---7-8---/10----|---/7---7---7-8---/10----|
A|-----------------------|-------------------------|
D|-----------------------|-0-----------------------|


G|------7---5-----7-----10-|
D|---/7---7---7-8---/10----|
A|-------------------------|
D|-0-----------------------|


G|-7-7----------|-----------------------|
D|------7\------|-----------------------|
A|--------------|-----------------33-44-|
D|---------0-0--|-000-333-555-777-------|
             (x3)

G|-----------------------------|
D|-----------------------------|
A|------5h3---3-------5h3---5--|
D|-0000-----5----0000-----5----|
                            (x8)


G|---------------------------------------------------------|
D|---------------------------------------------------------|
A|------5h3---------5h3--------------5h3---------5h3-------|
D|-0000-----5h3--00-----5h3~~~--0000-----5h3--00-----(0)h5-|
                                                        (x4)

G|------------------------------------------|
D|------------------------------------------|
A|-5h3---------5h3---------5h3--------------|
D|-----5h4h3-0-----5h4h3-0-----5h3----------|
                                         (x3)

G|------------------------------------------|
D|------------------------------------------|
A|-6666666666666666-------------------------|
D|------------------0-----------------------|
            
Hard to play? Try these video lessons and learn fast. | Correct




comments powered by Disqus
↑ Back to top | Tablatures and chords are parodies/interpretations of the original songs. You may use it for private study, scholarship, research or language learning purposes only