» » »

210 Dog Years Tabs (ver.1)

Artists:  A B C D E F G H I J K L M N O P Q R S T U V W X Y Z # 

210 Dog Years Tabs (ver.1)

One Minute Silence
Rating:
0/5 (0 votes)

Hard to play? Try these video lessons and learn fast.
                ------------------------------------------------------------------------------
------------------------------------------------------------------------------
Tuning: Drop D
Listen to the song for number of line-repeats

Intro/outro line
e|-----------------------------------------------|
B|-----------------------------------------------|
G|-----------------------------------------------|
D|-----------------------------------------------|
A|-----------------------------------------------| 
D|-h6-p0-h6-p0-h7-p0-h7-p0-3-h5-p0-h6-p0-h7-p0-0-|

(PLayed like this on 4th and 8th times)
e|------------------------------------------|
B|------------------------------------------|
G|------------------------------------------|
D|------------------------------------------|
A|------------------------------------------|
D|-h6-p0-h6-p0-h7-p0-h7-p0-3-h5-p0-6.-7.--0-|



Chorus line
(Note - Not sure what the wierd noises are in between the 2's)
e|---------------------------------------------------------------|
B|---------------------------------------------------------------|
G|---------------------------------------------------------------|
D|-2-2--2-2--2-2--2-2-3-0-2/8---2-2--2-2--2-2--2-2--33-3--00-0---|
A|-2-2--2-2--2-2--2-2-3-0-2/8---2-2--2-2--2-2--2-2--33-3--00-0---|
D|-2-2--2-2--2-2--2-2-3-0-2/8---2-2--2-2--2-2--2-2--33-3--00-0---|
                                                    pm    pm


Lighten up a little!
e|----------------------------------------------|
B|----------------------------------------------|
G|----------------------------------------------|
D|-2-2-----2-3-2-----2-2-3-----2-2-3---2-3-2----|
A|-2-2-----2-3-2-----2-2-3-----2-2-3---2-3-2----|
D|-2-2-----2-3-2-----2-2-3-----2-2-3---2-3-2----|



Intro line
e|-----------------------------------------------|
B|-----------------------------------------------|
G|-----------------------------------------------|
D|-----------------------------------------------|
A|-----------------------------------------------| 
D|-h6-p0-h6-p0-h7-p0-h7-p0-3-h5-p0-h6-p0-h7-p0-0-|



Chorus line
e|---------------------------------------------------------------|
B|---------------------------------------------------------------|
G|---------------------------------------------------------------|
D|-2-2--2-2--2-2--2-2-3-0-2/8---2-2--2-2--2-2--2-2--33-3--00-0---|
A|-2-2--2-2--2-2--2-2-3-0-2/8---2-2--2-2--2-2--2-2--33-3--00-0---|
D|-2-2--2-2--2-2--2-2-3-0-2/8---2-2--2-2--2-2--2-2--33-3--00-0---|
                                                    pm    pm


210 DOG YEARS!         x3           then x1     last time like this
e|------------------------|----------------|||---------------------|
B|------------------------|----------------|||---------------------|
G|------------------------|----------------|||---------------------|
D|-0--//12p0-11\\1--------|--1-1-1-3-1-0-1-|||--1-1-1--------------|
A|-0--//12p0-11\\1-(hold)-|--1-1-1-3-1-0-1-|||--1-1-1--6p0---5p0---|
D|-0--//12p0-11\\1--------|--1-1-1-3-1-0-1-|||--1-1-1-----h6----h5-|
                             pm...........      pm...
(Note - May not be full power chords on the slide
 - but its fine this way too)



Intro line
e|-----------------------------------------------|
B|-----------------------------------------------|
G|-----------------------------------------------|
D|-----------------------------------------------|
A|-----------------------------------------------| 
D|-h6-p0-h6-p0-h7-p0-h7-p0-3-h5-p0-h6-p0-h7-p0-0-|

(Played like this 4th time only)
e|-----------------------------------------------|
B|-----------------------------------------------|
G|-----------------------------------------------|
D|-----------------------------------------------|
A|-----------------------------------------------| 
D|--6-p0-h6-p0-h7-p0-h7-p0-3-h5-p0-7-(wait!)-----|

(Played like this 12th time only)
e|-----------------------------------|
B|-----------------------------------|
G|-----------------------------------|
D|-----------------------------------|
A|-----------------------------------| 
D|--6-p0-h6-p0-h7-p0-h7-p0-3-h5-p0-6-|



Outro!            x4         x4                   x2
e|------------------||---------||-------------------|
B|------------------||---------||-------------------|
G|------------------||---------||-------------------|
D|-000-321--000-320-||-000-654-||-000-321--000-320--|
A|-000-321--000-320-||-000-654-||-000-321--000-320--|
D|-000-321--000-320-||-000-654-||-000-321--000-320--|
   pm.      pm.        pm.        pm.      pm.


************************************
 /   slide up
 \   slide down
 h   hammer-on
 p   pull-off
 pm  palm mute
************************************
            
Hard to play? Try these video lessons and learn fast. | Correct




comments powered by Disqus
↑ Back to top | Tablatures and chords are parodies/interpretations of the original songs. You may use it for private study, scholarship, research or language learning purposes only