» » »

One Minute Silence, 1845 Tabs (ver.1)

Artists:  A B C D E F G H I J K L M N O P Q R S T U V W X Y Z # 

1845 Tabs (ver.1)

One Minute Silence Tabs
Rating:
0/5 (0 votes)
1845 lessons Tabs too difficult? Try these video lessons and learn fast
                use drop d tuning d-a-d-g-b-e
another pretty easy song. its just
the same riff with variations
if u find any mistakes mail me

-|----------------------------------------------------------------------------
-|----------------------------------------------------------------------------
-|----------------------------------------------------------------------------
-|----------------------------------------------------------------------------
-|----------------------------------------------------------------------------
-|-2-2-2-3-3-3-0-0-------------------------------------------------------------


-|----------------------------------------------------------------------------
-|----------------------------------------------------------------------------
-|----------------------------------------------------------------------------
-|-2-2-2--3-3-3-0-0------------------------------------------------------------
-|-2-2-2--3-3-3-0-0------------------------------------------------------------
-|-2-2-2--3-3-3-0-0------------------------------------------------------------
                                                                              

-|-------------|--------------------------------------------------------------
-|-------------|--------------------------------------------------------------
-|-------------|--------------------------------------------------------------
-|-2-2-3-------|-2-2--x-2-----------------------------------------------------
-|-2-2-3-------|-2-2--x-2-----------------------------------------------------
-|-2-2-3-------|-2-2--x-2-----------------------------------------------------
 1st time only                                                                

-|----------------------------------------------------------------------------
-|----------------------------------------------------------------------------
-|----------------------------------------------------------------------------
-|-3-2-0-2---2-2-2-3-0--------------------------------------------------------
-|-3-2-0-2---2-2-2-3-0--------------------------------------------------------
-|-3-2-0h2-0-2-2-2-3p0--------------------------------------------------------
                                                                              

-|----------------------------------------------------------------------------
-|----------------------------------------------------------------------------
-|----------------------------------------------------------------------------
-|-2-2---2---2-2-2-2-3-3-0-0-----------------------------------------------------
-|-2-2---2---2-2-2-2-3-3-0-0-----------------------------------------------------
-|-2-2-0-2-0-2-2-2-2-3-3-0-0-----------------------------------------------------
             [.....p.m.....]                                                      

work the order and timing out 4 urself
            

comments powered by Disqus
↑ Back to top | One Minute Silence Tabs for 1845. Lyrics for acoustic guitar and electric guitar. Tablatures and chords are parodies/interpretations of the original songs. You may use it for private study, scholarship, research or language learning purposes only