» » »

One Minute Silence, 16 Stone Pig Tabs (ver.2)

Artists:  A B C D E F G H I J K L M N O P Q R S T U V W X Y Z # 

16 Stone Pig Tabs (ver.2)

One Minute Silence Tabs
Rating:
0/5 (0 votes)
Hard to play? Try these video lessons and learn fast.
                OK, This is what i believe is the correct version, 
the other one makes no sense!!!
HERE WE GO....

x = palm mute

Tuning :  D A D G B E  

If you are lucky enough to have a tremelo arm on ur
guitar then u can play the VERY first bit:

Riff 1
E||------------------------
B||------------------------
G||------------------------
D||-0----------------------
A||-0-then push down-as-far as u need 2 get the effect
D||-0----------------------

This is the first guitar bit that is played, easy but strangely
satisfying...

Riff 2
E||-----17-18-----------------------------------------------
B||-15--------15--------------------------------------------
G||---------------------------------------------------------
D||---------------------------------------------------------
A||---------------------------------------------------------
D||---------------------------------------------------------
	
Riff 3

This part is played with a nice little effect called phaser
at first then it breaks in wit some normal O.D.
E||---------------------------------------------------------
B||---------------------------------------------------------
G||---------------------------------------------------------
D||-0-0-1-1-------------------------------------------------
A||---------3-3--0-0-3-3------------------------------------
D||----------------------5-5--------------------------------

Riff 4

i love dis riff cause its really fast and makes you smile
E||--------------------------------------------------------------
B||--------------------------------------------------------------
G||--------------------------------------------------------------
D||-0-3-2-0-3-2-0-6-0-3-2-0-3-2-0-6-0-3-2-0-3-2-0-6-0-3-2-0-3-2-0
A||-0-3-2-0-3-2-0-6-0-3-2-0-3-2-0-6-0-3-2-0-3-2-0-6-0-3-2-0-3-2-0
D||-0-3-2-0-3-2-0-6-0-3-2-0-3-2-0-6-0-3-2-0-3-2-0-6-0-3-2-0-3-2-0
							       	x

E||-------------------------------------------------------------
B||-------------------------------------------------------------
G||-------------------------------------------------------------
D||-0-3-2-0-3-2-0-6-0-3-2-0-3-2-0-6-0-3-2-0-3-2-0-6-0-3-2-0-3-2-
A||-0-3-2-0-3-2-0-6-0-3-2-0-3-2-0-6-0-3-2-0-3-2-0-6-0-3-2-0-3-2-
D||-0-3-2-0-3-2-0-6-0-3-2-0-3-2-0-6-0-3-2-0-3-2-0-6-0-3-2-0-3-2-

End riff
E||---------------------------------------------------------
B||---------------------------------------------------------
G||---------------------------------------------------------
D||-0-3-2-0-3-2-0-6-----------------------------------------
A||-0-3-2-0-3-2-0-6-----------------------------------------
E||-0-3-2-0-3-2-0-6-----------------------------------------
	

This is all i got at da moment. I have lost my CD so i is doin 
this from memory. I think dat dis is da whole song and i will
put up a riff order as soon as i find the CD.
Any insults, corrections or new flavours of cheese then please
            

comments powered by Disqus
↑ Back to top | One Minute Silence Tabs for 16 Stone Pig. Lyrics for acoustic guitar and electric guitar. Tablatures and chords are parodies/interpretations of the original songs. You may use it for private study, scholarship, research or language learning purposes only