» » »

16 Stone Pig Tabs (ver.1)

Artists:  A B C D E F G H I J K L M N O P Q R S T U V W X Y Z # 

16 Stone Pig Tabs (ver.1)

One Minute Silence
Rating:
0/5 (0 votes)

Hard to play? Try these video lessons and learn fast.
                OK this CAN'T be perfect just based on the fact this is the FIRST tab i've EVER even tried to do!


The intro pt1: strike, hold, then down press(bar) on open D 


The Intro pt2: Simple four(4) notes
e-----17-18--15--------
B-15-------------------
G----------------------
D----------------------
A----------------------
D----------------------

The last "true story" part: basically just crank the flange and slide around 2-7 on the top three strings

The verse: PALM MUTE
D--1-1-3-1-4-1-3-1/7\1-----1-1-3-1-4-1-3-1/9\1---
A--1-1-3-1-4-1-3-1/7\1-----1-1-3-1-4-1-3-1/9\1---
D--1-1-3-1-4-1-3-1/7\1-----1-1-3-1-4-1-3-1/9\1---
                   *                       *
*=unnessary but sounds better(i cant get there half the time)

The last riff!!!!!!
D--1-3-4-1-3-4-1-0-----------------------
A--1-3-4-1-3-4-1-0-----------------------
D--1-3-4-1-3-4-1-0-----------------------
            
Hard to play? Try these video lessons and learn fast. | Correct




comments powered by Disqus
↑ Back to top | Tablatures and chords are parodies/interpretations of the original songs. You may use it for private study, scholarship, research or language learning purposes only