» » »

Onelinedrawing, Yr Letter Tabs (ver.1)

Artists:  A B C D E F G H I J K L M N O P Q R S T U V W X Y Z # 

Yr Letter Tabs (ver.1)

Onelinedrawing Tabs
 Rating:
4/5 (4 votes)
Yr Letter lessons Tabs too difficult? Try these video lessons and learn fast
1
                the song is pretty easy,ain't theoriginal but sounds good..so here how it goes..
intro.
e---------0-----------0------------0---0---0------------|
B---------3-x4--------3-x4---------3-/-5-\-3--x12-------|
G---------0-----------0------------0---0---0------------| x2
D----x-----------0-------------0------------------------|
A----2-x2--------x-x2----------2-x2---------------------|
E----0-----------2--------------------------------------|
verse.     there's your letter
e---------0-----------0------------0---0---0------------|
B---------3-x4--------3-x4---------3-/-5-\-3--x12-------|
G---------0-----------0------------0---0---0------------|
D----x-----------0-------------0------------------------|
A----2-x2--------x-x2----------2-x2---------------------|
E----0-----------2--------------------------------------|
          there's you on my floor
e---------0-----------0------------0---0---0------------|
B---------3-x4--------3-x4---------3-/-5-\-3--x12-------|
G---------0-----------0------------0---0---0------------|
D----x-----------0-------------0------------------------|
A----2-x2--------x-x2----------2-x2---------------------|
E----0-----------2--------------------------------------|
          there's you in the corner
e---------0-----------0------------0---0---0------------|
B---------3-x4--------3-x4---------3-/-5-\-3--x12-------|
G---------0-----------0------------0---0---0------------|
D----x-----------0-------------0------------------------|
A----2-x2--------x-x2----------2-x2---------------------|
E----0-----------2--------------------------------------|
         there's me,wondering what this is for
e---------0-----------0---------------0-----------------|
B---------3-x4--------3-x4------------3--x7-------------|
G---------0-----------0---------------0-----------------|
D----x-----------0-------------0------------------------|
A----2-x2--------x-x2----------2-x2---------------------|
E----0-----------2--------------------------------------|
bridge.
Have you finally met her.Is it to say you wish for me only the best
e-------------0----------------------0-------------------|
B-------------3----------------------3-------------------|
G-------------0----------------------0-------------------|
D-------------0----------------------0-------------------|
A----2--------3-------------2--------3-------------------|
E----0-2/3-3--0-------------0-2/3-3--0-------------------|

I hope you never get her.I hope it's saying how you know now there's nothing left
e-------------0----------------------0-------------------|
B-------------3----------------------3-------------------|
G-------------0----------------------0---x2--------------|
D-------------0----------------------0-------------------|
A----2--------3-------------2--------3-------------------|
E----0-2/3-3--0-------------0-2/3-3--0-------------------|

intro.

verse.

bridge.(its like the first but you have to similary like in the verse,just listen to the 
and you'll get it)

chorus.(the same as the verse)

verse.(at the start just play all those notes randomly)

well thats it..
            
Submit corrections

comments powered by Disqus
↑ Back to top | Onelinedrawing Tabs for Yr Letter. Lyrics for acoustic guitar and electric guitar. 1 Tablatures and chords are parodies/interpretations of the original songs. You may use it for private study, scholarship, research or language learning purposes only