>
 >
Crush On Everyone

Crush On Everyone Guitar Tabs

Onelinedrawing - Crush On Everyone chords, tabs, tablatures, lyrics

Guitar lessons | Add/correct | Request | Top 50 tabs Artists:  A B C D E F G H I J K L M N O P Q R S T U V W X Y Z 0-9

Crush On Everyone Guitar Tabs – Onelinedrawing

CD, Sheet music, Poster

Do you like Crush On Everyone? Share with your friends now
Tabs

CRUSH ON EVERYONE
As recorded by Onelinedrawing
(From the 2001 EP SKETCHY EP #2)

	



Gsus2/A
x 0 5 0 x x
	
A7sus4
x 0 2 2 3 3
	
G/C
x 3 5 4 x x
	
Gm/C
x 3 5 3 x x

Gtr I (E A D G B E) - 'Untitled'

 Intro
  Q=100
  C5        Gsus2/A     C5        Gsus2/A
 4/4
  Gtr I
  PM|                   PM|
  E E E S S E E E S S   E E E S S E E E S S
|---------------------|---------------------|
|---------------------|---------------------|
|---------0---------0-|---------0---------0-|
|-----5-x-------5-x---|-----5-x-------5-x---|
|-3-3-------0-0-------|-3-3-------0-0-------|
|---------------------|---------------------|


   Verse 1
    C5        Gsus2/A     C5        Gsus2/A
    PM|                   PM|
    E E E S S E E E S S   E E E S S E E E S S  3x
||----------------------|----------------------||
||o---------------------|---------------------o||
||----------0---------0-|---------0---------0--||
||------5-x-------5-x---|-----5-x-------5-x----||
||o-3-3-------0-0-------|-3-3-------0-0-------o||
||----------------------|----------------------||


  C5        Gsus2/A     C5        Gsus2/A
  PM|                   PM|
  E E E S S E E E S S   E E E S S E E E S S
|---------------------|---------------------|
|---------------------|---------------------|
|---------0---------0-|---------0-----------|
|-----5-x-------5-x---|-----5-x-------5-5-3-|
|-3-3-------0-0-------|-3-3-------0-0-----3-|
|---------------------|---------------------|


  F5                  G5
  PM----------------------------------|
  E E E E E E E S S   E E E E E E E S S
|-------------------|-------------------|
|-------------------|-------------------|
|-----------------0-|-----------------0-|
|-3---3---3---3---0-|-5---5---5---5---0-|
|-3-3-3-3-3-3-3-3---|-5-5-5-5-5-5-5-5---|
|-1-1-1-1-1-1-1-1---|-3-3-3-3-3-3-3-3---|


  C5        Gsus2/A     C5        Gsus2/A
  PM|                   PM|
  E E E S S E E E S S   E E E S S E E E S S
|---------------------|---------------------|
|---------------------|---------------------|
|---------0---------0-|---------0---------0-|
|-----5-5-------5-5---|-----5-5-------5-5---|
|-3-3-------0-0-------|-3-3-------0-0-------|
|---------------------|---------------------|


   Verse 2
    C5        Gsus2/A     C5        Gsus2/A
    PM|                   PM|
    E E E S S E E E S S   E E E S S E E E S S   3x
||----------------------|-----------------------||
||o---------------------|----------------------o||
||----------0---------0-|---------0---------0---||
||------5-5-------5-5---|-----5-5-------5-5-----||
||o-3-3-------0-0-------|-3-3-------0-0--------o||
||----------------------|-----------------------||


  C5        Gsus2/A     C5        Gsus2/A
  PM|                   PM|
  E E E S S E E E S S   E E E S S E E E S S
|---------------------|---------------------|
|---------------------|---------------------|
|---------0---------0-|---------0-----------|
|-----5-5-------5-5---|-----5-5-------5-5-3-|
|-3-3-------0-0-------|-3-3-------0-0-----3-|
|---------------------|---------------------|


  F5                  G5
  PM----------------------------------|
  E E E E E E E S S   E E E E E E E S S
|-------------------|-------------------|
|-------------------|-------------------|
|-------------------|-----------------0-|
|-----------------0-|-----------------0-|
|-3---3---3---3-----|-5---5---5---5-----|
|-1-1-1-1-1-1-1-1---|-3-3-3-3-3-3-3-3---|


  C5        Gsus2/A     C5        Gsus2/A
  E E E S S E E E S S   E E E S S E E E S S
|---------------------|---------------------|
|---------------------|---------------------|
|---------------------|---------------------|
|-5-5-5-5-5-5-5-5-5-5-|-5-5-5-5-5-5-5-5-5-5-|
|-3-3-3-3-3-0-0-0-0-0-|-3-3-3-3-3-0-0-0-0-0-|
|---------------------|---------------------|


 Bridge
  C5        Gsus2/A     G
  E E E S S E E E S S   E E E S S E E E S S
|---------------------|-----3-3-3-----3-3-3-|
|---------------------|-----3-3-3-----3-3-3-|
|---------------------|-----4-4-4-----4-4-4-|
|-5-5-5-5-5-5-5-5-5-5-|-5-5-5-5-5-5-5-5-5-5-|
|-3-3-3-3-3-0-0-0-0-0-|-5-5-5-5-5-5-5-5-5-5-|
|---------------------|-3-3-3-3-3-3-3-3-3-3-|


  A7sus4    G           F
  E E E S S E E E S S   E E E E E E E E
|-----3-3-3-----------|-----------------|
|-----3-3-3-----3-3-3-|-1---1---1---1---|
|-----2-2-2-----0-0-0-|-2-2-2-2-2-2-2-2-|
|-2-2-2-2-2-----0-0-0-|-3-3-3-3-3-3-3-3-|
|-0-0-0-0-0-2-2-2-2-2-|-3-3-3-3-3-3-3-3-|
|-----------3-3-3-3-3-|-1-1-1-1-1-1-1-1-|


  A5        G5          F5
  E E E S S E E E S S   E E E E E E E S S
|---------------------|-------------------|
|---------------------|-------------------|
|-2-2-2-2-2-----------|-------------------|
|-2-2-2-2-2-5-5-5-5-5-|-3-3-3-3-3-3-3-3-3-|
|-0-0-0-0-0-5-5-5-5-5-|-3-3-3-3-3-3-3-3-3-|
|-----------3-3-3-3-3-|-1-1-1-1-1-1-1-1-1-|


  A5        G5          F5
                           PM----------------------------|
  E E E S S E E E S S   Q  E E E E E E   E E E E E E E S S
|---------------------|----------------|-------------------|
|---------------------|----------------|-------------------|
|-2-2-2-2-2-----------|----------------|-------------------|
|-2-2-2-2-2-5-5-5-5-5-|-3--------------|-------------------|
|-0-0-0-0-0-5-5-5-5-5-|-3--3-3-3-3-3-3-|-3-3-3-3-3-3-3-3-3-|
|-----------3-3-3-3-3-|-1--1-1-1-1-1-1-|-1-1-1-1-1-1-1-1-1-|


  C5        Gsus2/A     C5        Gsus2/A
  PM--------------------------------------|
  E E E S S E E E S S   E E E S S E E E S S
|---------------------|---------------------|
|---------------------|---------------------|
|-----0-0-0-----0-0-0-|-----0-0-0-----0-0-0-|
|-5-5-5-5-5-5-5-5-5-5-|-5-5-5-5-5-5-5-5-5-5-|
|-3-3-3-3-3-0-0-0-0-0-|-3-3-3-3-3-0-0-0-0-0-|
|---------------------|---------------------|


   Verse 3
    (C5)
    E E E E E E E E         E E E E E E E S S
||-------------------||-||--------------------|
||o-----------------o||-||o-------------------|
||-------------------||-||--------------------|
||--x-x-x-x-x-x-x-x--||-||--x-x-x-x-x-x-x-x-x-|
||o-x-x-x-x-x-x-x-x-o||-||o-x-x-x-x-x-x-x-x-x-|
||-------------------||-||--------------------|


  E E E E E E E E         E E E E E E E E
|------------------||-||-------------------||
|-----------------o||-||o-----------------o||
|------------------||-||-------------------||
|-x-x-x-x-x-x-x-x--||-||--x-x-x-x-x-x-x-x--||
|-x-x-x-x-x-x-x-x-o||-||o-x-x-x-x-x-x-x-x-o||
|------------------||-||-------------------||


  C5      G/C         Gm/C
  PM----|
  E E E E E E E S S   E E E E E E E S S
|-------------------|-------------------|
|-------------------|-------------------|
|---------4-4-4-4-4-|-3-3-3-3-3-3-3-3-3-|
|-5-5-5-5-5-5-5-5-5-|-5-5-5-5-5-5-5-5-5-|
|-3-3-3-3-3-3-3-3-3-|-3-3-3-3-3-3-3-3-3-|
|-------------------|-------------------|


  C5        G/C         Gm/C
  E E E S S E E E S S   E E E E E E E S S
|---------------------|--------------------|
|---------------------|--------------------|
|-5-5-5-5-5-4-4-4-4-4-|-3-3-3-3-3-3-3-3-3--|
|-5-5-5-5-5-5-5-5-5-5-|-5-5-5-5-5-5-5-5-5--|
|-3-3-3-3-3-3-3-3-3-3-|-3-3-3-3-3-3-3-3-3--|
|---------------------|--------------------|


   Outro
    A5        G5          F5
    E E E S S E E E S S   E E E E E E E S S
||----------------------|-------------------|
||o---------------------|-------------------|
||--2-2-2-2-2-----------|-------------------|
||--2-2-2-2-2-5-5-5-5-5-|-3-3-3-3-3-3-3-3-3-|
||o-0-0-0-0-0-5-5-5-5-5-|-3-3-3-3-3-3-3-3-3-|
||------------3-3-3-3-3-|-1-1-1-1-1-1-1-1-1-|


  A5        G5          F5
  E E E S S E E E S S   E E E E E E E S S    3x
|---------------------|----------------------||
|---------------------|---------------------o||
|-2-2-2-2-2-----------|----------------------||
|-2-2-2-2-2-5-5-5-5-5-|-3-3-3-3-3-3-3-3-3----||
|-0-0-0-0-0-5-5-5-5-5-|-3-3-3-3-3-3-3-3-3---o||
|-----------3-3-3-3-3-|-1-1-1-1-1-1-1-1-1----||


                          1.,2.
    A5        G5          F5
    E E E S S E E E S S   E E E E E E E S S  3x
||----------------------|--------------------||
||o---------------------|-------------------o||
||--2-2-2-2-2-----------|--------------------||
||--2-2-2-2-2-5-5-5-5-5-|-3-3-3-3-3-3-3-3-3--||
||o-0-0-0-0-0-5-5-5-5-5-|-3-3-3-3-3-3-3-3-3-o||
||------------3-3-3-3-3-|-1-1-1-1-1-1-1-1-1--||


  3.
  E E E E E E E E   E E E E E E E S S   W
|-----------------|-------------------|------*|
|-----------------|-------------------|------*|
|-----------------|-------------------|------*|
|-3-3-3-3-3-3-3-3-|-3-3-3-3-3-3-3-3-3-|-3----*|
|-3-3-3-3-3-3-3-3-|-3-3-3-3-3-3-3-3-3-|-3----*|
|-1-1-1-1-1-1-1-1-|-1-1-1-1-1-1-1-1-1-|-1----*|





Comments


Popular Onelinedrawing tabs & chords
Better Than This Tabs
Got My List Tabs
Livin Small Tabs
Smile Tabs
Tides Tabs
Yr Letter Tabs


Song lyrics



↑ Back to top | Tablatures and chords are parodies/interpretations of the original songs. You may use it for private study, scholarship, research or language learning purposes only
© 2014 AZChords.com Contact us | Privacy policy | DMCA | Add/correct tabs | Request tabs | Top 50 tabs