» » »

One Less Reason, Sadly Smiling Through Tabs (ver.1)

Artists:  A B C D E F G H I J K L M N O P Q R S T U V W X Y Z # 

Sadly Smiling Through Tabs (ver.1)

One Less Reason Tabs
 Rating:
4.2/5 (5 votes)
Sadly Smiling Through lessons Tabs too difficult? Try these video lessons and learn fast
                Sadly Smiling Through guitar tab

The lead guitar is missing but i'm working on it...

Tuning:

DGCFAd


1^ VERSE
	C9		    Em7		D4

d---3-3-3-3--3-3---  --3-3-3-3--3-3----3-3-3-3--3-3-------------------|
A---3-3-3-3--3-3---  --3-3-3-3--3-3----3-3-3-3--3-3-------------------|
F---0-0-0-0--0-0---X2--0-0-0-0--0-0----2-2-2-2--2-2-------------------|
C---2-2-2-2--2-2---  --2-2-2-2--2-2----0-0-0-0--0-0-------------------|
G---3-3-3-3--3-3---  --2-2-2-2--2-2-----------------------------------|
D------------------  --0-0-0-0--0-0-----------------------------------|


CHORUS
	C9		D4		Em7		D4

d---3-3-3-3--3-3-----3-3-3-3--3-3----3-3-3-3--3-3-----3-3-3-3--3-3---|
A---3-3-3-3--3-3-----3-3-3-3--3-3----3-3-3-3--3-3-----3-3-3-3--3-3---|
F---0-0-0-0--0-0-----2-2-2-2--2-2----0-0-0-0--0-0-----2-2-2-2--2-2---|  X3
C---2-2-2-2--2-2-----0-0-0-0--0-0----2-2-2-2--2-2-----0-0-0-0--0-0---|
G---3-3-3-3--3-3---------------------2-2-2-2--2-2--------------------|
D--------------------------------------------------------------------|

	C9		D4
d---3-3-3-3--3-3-----3-3-3-3--3-3----------------|
A---3-3-3-3--3-3-----3-3-3-3--3-3----------------|
F---0-0-0-0--0-0-----2-2-2-2--2-2----------------|
C---2-2-2-2--2-2-----0-0-0-0--0-0----------------|
G---3-3-3-3--3-3---------------------------------|
D------------------------------------------------|

2^ VERSE


	C9		    Em7		D4

d---3-3-3-3--3-3---  --3-3-3-3--3-3----3-3-3-3--3-3-------------------|
A---3-3-3-3--3-3---  --3-3-3-3--3-3----3-3-3-3--3-3-------------------|
F---0-0-0-0--0-0---X2--0-0-0-0--0-0----2-2-2-2--2-2-------------------|
C---2-2-2-2--2-2---  --2-2-2-2--2-2----0-0-0-0--0-0-------------------|
G---3-3-3-3--3-3---  --2-2-2-2--2-2-----------------------------------|
D------------------  --0-0-0-0--0-0-----------------------------------|


CHORUS
	C9		D4		Em7		D4

d---3-3-3-3--3-3-----3-3-3-3--3-3----3-3-3-3--3-3-----3-3-3-3--3-3---|
A---3-3-3-3--3-3-----3-3-3-3--3-3----3-3-3-3--3-3-----3-3-3-3--3-3---|
F---0-0-0-0--0-0-----2-2-2-2--2-2----0-0-0-0--0-0-----2-2-2-2--2-2---|   X3
C---2-2-2-2--2-2-----0-0-0-0--0-0----2-2-2-2--2-2-----0-0-0-0--0-0---|
G---3-3-3-3--3-3---------------------2-2-2-2--2-2--------------------|
D--------------------------------------------------------------------|

	C9		D4
d---3-3-3-3--3-3-----3-3-3-3--3-3----------------|
A---3-3-3-3--3-3-----3-3-3-3--3-3----------------|
F---0-0-0-0--0-0-----2-2-2-2--2-2----------------|
C---2-2-2-2--2-2-----0-0-0-0--0-0----------------|
G---3-3-3-3--3-3---------------------------------|
D------------------------------------------------|


BRIDGE

C9-D4-C9-D4-C9-D4-C9-D4

CHORUS

CHORUS
	C9		D4		Em7		D4

d---3-3-3-3--3-3-----3-3-3-3--3-3----3-3-3-3--3-3-----3-3-3-3--3-3---|
A---3-3-3-3--3-3-----3-3-3-3--3-3----3-3-3-3--3-3-----3-3-3-3--3-3---|
F---0-0-0-0--0-0-----2-2-2-2--2-2----0-0-0-0--0-0-----2-2-2-2--2-2---|  X6
C---2-2-2-2--2-2-----0-0-0-0--0-0----2-2-2-2--2-2-----0-0-0-0--0-0---|
G---3-3-3-3--3-3---------------------2-2-2-2--2-2--------------------|
D--------------------------------------------------------------------|

	C9		D4
d---3-3-3-3--3-3-----3-3-3-3--3-3----------------|
A---3-3-3-3--3-3-----3-3-3-3--3-3----------------|
F---0-0-0-0--0-0-----2-2-2-2--2-2----------------|
C---2-2-2-2--2-2-----0-0-0-0--0-0----------------|
G---3-3-3-3--3-3---------------------------------|
D------------------------------------------------|

	C9		D4		Em7		D4

d---3-3-3-3--3-3-----3-3-3-3--3-3----3-3-3-3--3-3-----3-3-3-3--3-3---|
A---3-3-3-3--3-3-----3-3-3-3--3-3----3-3-3-3--3-3-----3-3-3-3--3-3---|
F---0-0-0-0--0-0-----2-2-2-2--2-2----0-0-0-0--0-0-----2-2-2-2--2-2---|   X3
C---2-2-2-2--2-2-----0-0-0-0--0-0----2-2-2-2--2-2-----0-0-0-0--0-0---|
G---3-3-3-3--3-3---------------------2-2-2-2--2-2--------------------|
D--------------------------------------------------------------------|

	C9		D4
d---3-3-3-3--3-3-----3-3-3-3--3-3----------------|
A---3-3-3-3--3-3-----3-3-3-3--3-3----------------|
F---0-0-0-0--0-0-----2-2-2-2--2-2----------------|
C---2-2-2-2--2-2-----0-0-0-0--0-0----------------|
G---3-3-3-3--3-3---------------------------------|
D------------------------------------------------|


You're talking like you're leaving
You said it's your heart and not my call to
Make you feel like feeling
You were so ashamed when I fell on my two feet again
And God I hated your friends
I gave you love they could never buy
Or even try to understand
The part of me that it came from
Don't you see that

(Chorus)
Sadly I'm smiling through
All the truth that you took
And the lies that you told me
There's nothing that I can do
With the promise you made
That you'd never remember
No coming back for you
It hurts so much to feel all this pain
And so I haven't felt lately
No coming back for you, back to...

Did you even notice it when I changed?
'Cause I could score in your heart,
But I could never place
And did I forget to say
I was so proud of you
When things were caving in
And things were tough, I know
I didn't say that I loved you enough
But just cause I wasn't saying it
Doesn't mean that I wasn't thinking it

(Chorus)
Sadly I'm smiling through
All the truth that you took
And the lies that you told me
There's nothing that I can do
With the promise you made
That you'd never remember
No coming back for you
It hurts so much to feel all this pain
And so I haven't felt lately
No coming back for you, back to...

And my confusion made clear
And my confusion made clear


(Chorus)
Sadly I'm smiling through
All the truth that you took
And the lies that you told me
There's nothing that I can do
With the promise you made
That you'd never remember
No coming back for you
It hurts so much to feel all this pain
And so I haven't felt lately
No coming back for you, back to you
            
Submit corrections

comments powered by Disqus
↑ Back to top | One Less Reason Tabs for Sadly Smiling Through. Lyrics for acoustic guitar and electric guitar. Tablatures and chords are parodies/interpretations of the original songs. You may use it for private study, scholarship, research or language learning purposes only