» » »

One Less Reason, All That's Best In You Tabs (ver.1)

Artists:  A B C D E F G H I J K L M N O P Q R S T U V W X Y Z # 

All That's Best In You Tabs (ver.1)

One Less Reason Tabs
Rating:
0/5 (0 votes)
All That's Best In You lessons Tabs too difficult? Try these video lessons and learn fast
                Band:  One Less Reason

Standard Tuning

Intro
    C                G                F                F
e-|-3-------3----------------3----------------3----------------3--------|
b-|-----1-----1----------3-----3----------1-----1----------1-----1------|
G-|---0---0-----0------0---0-----0------2---2-----2------2---2-----2----|
D-|---------------2----------------0--3-------------3--3-------------3--|
A-|-3----------------2--------------------------------------------------|
E-|---------------------------------------------------------------------|

     C               G                F
e-|---------3----------------3----------------3-------------------------|
b-|-----1-----1----------3-----3----------1-----1-----------------------|
G-|---0---0-----0------0---0-----0------2---2-----2---------------------|
D-|---------------2----------------0--3-------------3~~~----------------|
A-|-3----------------2--------------------------------------------------|
E-|---------------------------------------------------------------------|


Verse
    C                G                F                F
e-|-3-------3----------------3----------------3----------------3--------|
b-|-----1-----1----------3-----3----------1-----1----------1-----1------|
G-|---0---0-----0------0---0-----0------2---2-----2------2---2-----2----|
D-|---------------2----------------0--3-------------3--3-------------3--|
A-|-3----------------2--------------------------------------------------|
E-|---------------------------------------------------------------------|
            You've grown up so much....
 
    C                G                F                F
e-|-3-------3----------------3----------------3----------------3--------|
b-|-----1-----1----------3-----3----------1-----1----------1-----1------|
G-|---0---0-----0------0---0-----0------2---2-----2------2---2-----2----|
D-|---------------2----------------0--3-------------3--3-------------3~~|
A-|-3----------------2--------------------------------------------------|
E-|---------------------------------------------------------------------|


CODA 1
    A                G                F                F        G
e-|---------3----------------3----------------3-------------------------|
b-|-0h1-------1----------3-----3----------1-----1----------1--------3---|
G-|-----2-------2------0---0-----0----------2-----2------2---2----0---0-|
D-|-------2-------2----------------0----3-----------3-------------------|
A-|-0-------------------------------------------------------------------|
E-|------------------3----------------1----------------1--------3-------|
            Sometimes you're all I see

    A                G                F
e-|---------3----------------3----------------3-------------------------|
b-|-1---1-----1----------3-----3----------1-----1-----------------------|
G-|---2---2-----2------0---0-----0----------2-----2---------------------|
D-|---------------2----------------0----3-----------3-------------------|
A-|-0-------------------------------------------------------------------|
E-|------------------3----------------1----------------1~~~-------------|
            Sometimes you're all I feel


Chorus
    C                G                F                G
e-|---------3----------------3----------------3----------------3--------|
b-|-1---1-----1----------3-----3----------1-----1----------3-----3------|
G-|---0---0-----0------0---0-----0----------2-----2------0---0-----0----|
D-|---------------2----------------0----3-----------3----------------0--|
A-|-3-------------------------------------------------------------------|
E-|------------------3----------------1----------------3----------------|
 ...bye

    C                G              C        G        A        G
e-|---------3----------------3------------------------------------------|
b-|-1---1-----1----------3-----3--------1--------1--------1--------3----|
G-|---0---0-----0------0---0-----0----0---0----0---0----0---0----0---0--|
D-|---------------2-----------------------------------------------------|
A-|-3-------------------------------3--------2--------0-----------------|
E-|------------------3-----------------------------------------3--------|
    Though all my faults        ....trueeeee                ...I couldn't see

    F                G
e-|---------3----------------3------------------------------------------|
b-|-----1-----1----------3-----3----------------------------------------|
G-|-------2-----2------0---0-----0~~~-----------------------------------|
D-|---3-----------3-----------------------------------------------------|
A-|---------------------------------------------------------------------|
E-|-1----------------3--------------------------------------------------|
    All that was best in you


Verse Again


Chorus Again


CODA 2
    F      G          F          G          F             G
e-|-3-----------------------------------------------(3)-----------------|
b-|------------3----------1----------3----------1---------------3-------|
G-|----------4----------2---2------4---4------2---2-----------4---4-----|
D-|-3------5----------3----------5----------3-------------3-5-------5---|
A-|---------------------------------------------------------------------|
E-|---------------------------------------------------------------------|
     You are my hope  You are the ink...   You are the day...

    A        G           F              G
e-|------------------------------3--------------3------|
b-|-----1--------1-----------1-----1--------3-----3----|
G-|---0---0----0---0-------2---2-----2----4---4-----4--|
D-|----------------------3--------------5--------------|
A-|-0--------------------------------------------------|
E-|----------3-----------------------------------------|
    You'd be the only... All I am...

    F              G              F              G
e-|---------3--------------3--------------3--------------3----|
b-|-----1-----1--------3-----3--------1-----1--------1-----1--|
G-|---2---2-----2----4---4-----4----2---2-----2----0---0------|
D-|-3--------------5--------------3---------------------------|
A-|-----------------------------------------------------------|
E-|----------------------------------------------3------------|
    The things I love...          My handful of hope...

    C        G        A        G        F                
e-|---------------------------------------------3-------------|
b-|-----1--------1--------1--------3--------1-----1-----------|
G-|---0---0----0---0----0---0----0---0--------2-----2---------|
D-|---------------------------------------3-----------3-------|
A-|-3--------2--------0---------------------------------------|
E-|----------------------------3--------1----------------1~~~-|
    Mooooreee....


Chorus - Slower/relaxed picking


Lyrics

You’ve grown so much, you’ve come so far
I never thought we’d end up here
You know I’ve seen this picture before
Reminds me of when you were home

Sometimes you’re all I see
Sometimes you’re all I feel

Wanted to tell you goodbye
And know that you’re safe
Now that the pain is gone,
The love remains
Though all my faults turn out to be so true
I couldn’t see…
All that was best in you
All that was best in you

Worked so hard it broke your heart
Robbed you of your smile that would save the world
A friend now more for a friend I lost
A friend that never left me unsure

I am sure

Wanted to tell you I lied
Oh, I made mistakes
And when I failed in life it was you I blamed
Though all my faces you could see right through
I couldn’t see…
All that was best in you

You are my hope (I’m giving in)
You are the ink under my skin
You are the day that I awake
You’d be the only chance I’d take
All I am and was before 
The things I love and I adore
My handful of hope and a little more

Wanted to tell you I tried
To make it ok
With just one letter gone I lost the name
Of that little boy smiling back at you
He couldn’t see all that was best in you.
            
Submit corrections

comments powered by Disqus
↑ Back to top | One Less Reason Tabs for All That's Best In You. Lyrics for acoustic guitar and electric guitar. Tablatures and chords are parodies/interpretations of the original songs. You may use it for private study, scholarship, research or language learning purposes only