» » »

Today's Another Day Tabs (ver.1)

Artists:  A B C D E F G H I J K L M N O P Q R S T U V W X Y Z # 

Today's Another Day Tabs (ver.1)

One Half Of Zero
Rating:
0/5 (0 votes)

Hard to play? Try these video lessons and learn fast.
                Verse
E----------------------------------------------------------
B----------------------------------------------------------
G----------------------------------------------------------
D-4-4-4-4-4-4-4-7-7-7-7-7-7-7-9-9-9-9-9-9-9-6-6-6-6-6-6-6--
A-4-4-4-4-4-4-4-7-7-7-7-7-7-7-9-9-9-9-9-9-9-6-6-6-6-6-6-6--
E-2-2-2-2-2-2-2-5-5-5-5-5-5-5-7-7-7-7-7-7-7-4-4-4-4-4-4-4--

Chorus
E----------------------------------------------------------
B----------------------------------------------------------
G---------------3-3-3-3-3-3-3------------------------------
D-2-2-2-2-2-2-2-3-3-3-3-3-3-3-9-9-9-9-9-9-9-6-6-6-6-6-6-6--
A-2-2-2-2-2-2-2-1-1-1-1-1-1-1-9-9-9-9-9-9-9-6-6-6-6-6-6-6--
E-0-0-0-0-0-0-0---------------7-7-7-7-7-7-7-4-4-4-4-4-4-4--       
                              P.M..........................

Order:
Verse (P.M.) 2x 
Chorus       1x
Verse	2x	
Chorus       1x


Lyrics:

Verse:  Today's another day that went wrong
        Don't know what I need been here too long
        Theres no reason for this song
        Cause today's another day that went wrong

Chorus: Holding on to what I have
        Cause theres nothing left to save
        Today's another day that went wrong
        And theres no reason for this song
            
Hard to play? Try these video lessons and learn fast. | Correct




comments powered by Disqus
↑ Back to top | Tablatures and chords are parodies/interpretations of the original songs. You may use it for private study, scholarship, research or language learning purposes only