» » »

The Phone Rings When It Wants To Talk Tabs (ver.1)

Artists:  A B C D E F G H I J K L M N O P Q R S T U V W X Y Z # 

The Phone Rings When It Wants To Talk Tabs (ver.1)

One Half Of Zero
Rating:
0/5 (0 votes)

Hard to play? Try these video lessons and learn fast.
                Intro    played fast and clean
E-2---2---3---3---2---2---3---3--
B---3---3---3---3---0---0---0----
G--------------------------------
D--------------------------------
A--------------------------------
E--------------------------------

Verse
E----------------------------------
B----------------------------------
G-7-7-7-7--------------------------
D-7-7-7-7-7-7-7-7-9-9-9-9-7-7-7-7--
A-5-5-5-5-7-7-7-7-9-9-9-9-7-7-7-7--
E---------5-5-5-5-7-7-7-7-5-5-5-5--

Chorus
E-------------------------------------
B-------------------------------------
G-------------------------------------
D-5-5-5----5-5-5-8-8-8-8-8-7-7-7-7-7--
A-5-5-5----5-5-5-8-8-8-8-8-7-7-7-7-7--
E-3-3-3----3-3-3-6-6-6-6-6-5-5-5-5-5--

Order:
Intro   4x
Verse   2x
Intro   2x
Chorus  2x
Verse   2x
Chorus  2x
Intro   4x

Lyrics:

Verse:   A lesson learned
	But not in time
	A thought of you
	Stuck in my mind
	Those words you said
	Singing through my head
	You voice like a song
	Repeating over and over
	
Chorus:  Late nights,long days
	I'm left here without you
	And maybe,I'll see you
	But its something I won't get through

Verse:   My eyes are closed
	But I still can see
	The way you look
	And stare at me
	The time is there
	But not for too long
	Should I take my chance
	Or throw it all away 	

Chorus:  Late nights,long days
	I'm left here without you
	And maybe,I'll see you
	But its something I won't get through
            
Hard to play? Try these video lessons and learn fast. | Correct




comments powered by Disqus
↑ Back to top | Tablatures and chords are parodies/interpretations of the original songs. You may use it for private study, scholarship, research or language learning purposes only