» » »

Standing Still Tabs (ver.1)

Artists:  A B C D E F G H I J K L M N O P Q R S T U V W X Y Z # 

Standing Still Tabs (ver.1)

One Half Of Zero
Rating:
0/5 (0 votes)

Hard to play? Try these video lessons and learn fast.
                Band- One Half Of Zero
Song- Standing Still
Album- A Word With No Letters

Chorus  (palm muted)
E------------------------------------------
B------------------------------------------
G-4-4-4-4-4-----------6-6-6-6-6------------
D-4-4-4-4-4-4-4-4-4-4-6-6-6-6-6-8-8-8-8-8--
A-2-2-2-2-2-4-4-4-4-4-4-4-4-4-4-8-8-8-8-8--
E-----------2-2-2-2-2-----------6-6-6-6-6--

Verse
E--------------------------------------------------
B--------------------------------------------------
G-6-6-6-6-6-6-6-6-4-4-4-4-4-4-4-4------------------
D-6-6-6-6-6-6-6-6-4-4-4-4-4-4-4-4-2-2-2-2-2-2-2-2--
A-4-4-4-4-4-4-4-4-2-2-2-2-2-2-2-2-2-2-2-2-2-2-2-2--
E---------------------------------0-0-0-0-0-0-0-0--

Moderate Chorus
E-------------------
B-------------------
G-4---------6-------
D-4----4----6----8--
A-2----4----4----8--
E------2---------6--

Order:
Chorus		 2x
Verse		 2x
Chorus		 8x
Verse		 2x
Moderate Chorus  2x
Chorus		 8x

Lyrics:

Chorus  
	I'm standing still
	As your walking away
	And I can feel
	The pain from that day

Verse   I'm so caught up
	Cause of ur mess
	And I'm so f**ked up
	I can't get a rest
	My life turned wrong
	After you said so long
Chorus  
	I'm standing still
	As your walking away
	And I can feel
	The pain from that day
	I'm standing still
	As your walking away
	And I can feel
	The pain from that day

Verse   I'm so confused
	About the other day
	Where did I f**king lose
	Is there any other way
	The one last time
	That I lost my mind

Chorus  I'm standing still
	As your walking away
	And I can feel
	The pain from that day	

Chorus I'm standing still
	As your walking away
	And I can feel
	The pain from that day
	I'm standing still
	As your walking away
	And I can feel
	The pain from that day
            
Hard to play? Try these video lessons and learn fast. | Correct




comments powered by Disqus
↑ Back to top | Tablatures and chords are parodies/interpretations of the original songs. You may use it for private study, scholarship, research or language learning purposes only